  0
SECTION
  2
HEADER
  9
$ACADVER
  1
AC1015
  9
$ACADMAINTVER
 70
    18
  9
$DWGCODEPAGE
  3
ANSI_1250
  9
$INSBASE
 10
215187.233673673
 20
127657.5168525552
 30
0.0
  9
$EXTMIN
 10
1.000000000000000E+20
 20
1.000000000000000E+20
 30
1.000000000000000E+20
  9
$EXTMAX
 10
0.0
 20
0.0
 30
0.0
  9
$LIMMIN
 10
0.0
 20
0.0
  9
$LIMMAX
 10
420.0
 20
297.0
  9
$ORTHOMODE
 70
     1
  9
$REGENMODE
 70
     1
  9
$FILLMODE
 70
     1
  9
$QTEXTMODE
 70
     0
  9
$MIRRTEXT
 70
     0
  9
$LTSCALE
 40
75.0
  9
$ATTMODE
 70
     1
  9
$TEXTSIZE
 40
20.0
  9
$TRACEWID
 40
1.0
  9
$TEXTSTYLE
  7
ROMANS
  9
$CLAYER
  8
0Wymiary-PL
  9
$CELTYPE
  6
ByLayer
  9
$CECOLOR
 62
   256
  9
$CELTSCALE
 40
1.0
  9
$DISPSILH
 70
     0
  9
$DIMSCALE
 40
10.0
  9
$DIMASZ
 40
30.0
  9
$DIMEXO
 40
43.0
  9
$DIMDLI
 40
0.0
  9
$DIMRND
 40
0.5
  9
$DIMDLE
 40
12.0
  9
$DIMEXE
 40
13.0
  9
$DIMTP
 40
0.0
  9
$DIMTM
 40
0.0
  9
$DIMTXT
 40
80.0
  9
$DIMCEN
 40
0.0
  9
$DIMTSZ
 40
0.0
  9
$DIMTOL
 70
     0
  9
$DIMLIM
 70
     0
  9
$DIMTIH
 70
     0
  9
$DIMTOH
 70
     0
  9
$DIMSE1
 70
     1
  9
$DIMSE2
 70
     1
  9
$DIMTAD
 70
     0
  9
$DIMZIN
 70
    12
  9
$DIMBLK
  1
B-DIM
  9
$DIMASO
 70
     1
  9
$DIMSHO
 70
     1
  9
$DIMPOST
  1

  9
$DIMAPOST
  1

  9
$DIMALT
 70
     0
  9
$DIMALTD
 70
     2
  9
$DIMALTF
 40
25.4
  9
$DIMLFAC
 40
1.0
  9
$DIMTOFL
 70
     1
  9
$DIMTVP
 40
1.0
  9
$DIMTIX
 70
     1
  9
$DIMSOXD
 70
     0
  9
$DIMSAH
 70
     0
  9
$DIMBLK1
  1

  9
$DIMBLK2
  1

  9
$DIMSTYLE
  2
500
  9
$DIMCLRD
 70
     1
  9
$DIMCLRE
 70
     1
  9
$DIMCLRT
 70
   140
  9
$DIMTFAC
 40
1.0
  9
$DIMGAP
 40
0.0
  9
$DIMJUST
 70
     0
  9
$DIMSD1
 70
     0
  9
$DIMSD2
 70
     0
  9
$DIMTOLJ
 70
     1
  9
$DIMTZIN
 70
     0
  9
$DIMALTZ
 70
     0
  9
$DIMALTTZ
 70
     0
  9
$DIMUPT
 70
     0
  9
$DIMDEC
 70
     1
  9
$DIMTDEC
 70
     1
  9
$DIMALTU
 70
     2
  9
$DIMALTTD
 70
     2
  9
$DIMTXSTY
  7
ROMANS
  9
$DIMAUNIT
 70
     0
  9
$DIMADEC
 70
     0
  9
$DIMALTRND
 40
0.0
  9
$DIMAZIN
 70
     0
  9
$DIMDSEP
 70
    46
  9
$DIMATFIT
 70
     3
  9
$DIMFRAC
 70
     0
  9
$DIMLDRBLK
  1
B-DIM
  9
$DIMLUNIT
 70
     2
  9
$DIMLWD
 70
    -2
  9
$DIMLWE
 70
    -2
  9
$DIMTMOVE
 70
     2
  9
$LUNITS
 70
     2
  9
$LUPREC
 70
     1
  9
$SKETCHINC
 40
1.0
  9
$FILLETRAD
 40
0.0
  9
$AUNITS
 70
     0
  9
$AUPREC
 70
     0
  9
$MENU
  1
.
  9
$ELEVATION
 40
0.0
  9
$PELEVATION
 40
0.0
  9
$THICKNESS
 40
0.0
  9
$LIMCHECK
 70
     0
  9
$CHAMFERA
 40
0.0
  9
$CHAMFERB
 40
0.0
  9
$CHAMFERC
 40
20.0
  9
$CHAMFERD
 40
0.0
  9
$SKPOLY
 70
     0
  9
$TDCREATE
 40
2452027.670547454
  9
$TDUCREATE
 40
2452027.587214121
  9
$TDUPDATE
 40
2455455.553771331
  9
$TDUUPDATE
 40
2455455.470437998
  9
$TDINDWG
 40
8.9444688079
  9
$TDUSRTIMER
 40
8.9444688079
  9
$USRTIMER
 70
     1
  9
$ANGBASE
 50
0.0
  9
$ANGDIR
 70
     0
  9
$PDMODE
 70
     0
  9
$PDSIZE
 40
0.0
  9
$PLINEWID
 40
0.0
  9
$SPLFRAME
 70
     0
  9
$SPLINETYPE
 70
     6
  9
$SPLINESEGS
 70
     8
  9
$HANDSEED
  5
30C
  9
$SURFTAB1
 70
     6
  9
$SURFTAB2
 70
     6
  9
$SURFTYPE
 70
     6
  9
$SURFU
 70
     6
  9
$SURFV
 70
     6
  9
$UCSBASE
  2

  9
$UCSNAME
  2

  9
$UCSORG
 10
0.0
 20
0.0
 30
0.0
  9
$UCSXDIR
 10
1.0
 20
0.0
 30
0.0
  9
$UCSYDIR
 10
0.0
 20
1.0
 30
0.0
  9
$UCSORTHOREF
  2

  9
$UCSORTHOVIEW
 70
     0
  9
$UCSORGTOP
 10
0.0
 20
0.0
 30
0.0
  9
$UCSORGBOTTOM
 10
0.0
 20
0.0
 30
0.0
  9
$UCSORGLEFT
 10
0.0
 20
0.0
 30
0.0
  9
$UCSORGRIGHT
 10
0.0
 20
0.0
 30
0.0
  9
$UCSORGFRONT
 10
0.0
 20
0.0
 30
0.0
  9
$UCSORGBACK
 10
0.0
 20
0.0
 30
0.0
  9
$PUCSBASE
  2

  9
$PUCSNAME
  2

  9
$PUCSORG
 10
0.0
 20
0.0
 30
0.0
  9
$PUCSXDIR
 10
1.0
 20
0.0
 30
0.0
  9
$PUCSYDIR
 10
0.0
 20
1.0
 30
0.0
  9
$PUCSORTHOREF
  2

  9
$PUCSORTHOVIEW
 70
     0
  9
$PUCSORGTOP
 10
0.0
 20
0.0
 30
0.0
  9
$PUCSORGBOTTOM
 10
0.0
 20
0.0
 30
0.0
  9
$PUCSORGLEFT
 10
0.0
 20
0.0
 30
0.0
  9
$PUCSORGRIGHT
 10
0.0
 20
0.0
 30
0.0
  9
$PUCSORGFRONT
 10
0.0
 20
0.0
 30
0.0
  9
$PUCSORGBACK
 10
0.0
 20
0.0
 30
0.0
  9
$USERI1
 70
     0
  9
$USERI2
 70
     0
  9
$USERI3
 70
     0
  9
$USERI4
 70
     0
  9
$USERI5
 70
     0
  9
$USERR1
 40
0.0
  9
$USERR2
 40
0.0
  9
$USERR3
 40
0.0
  9
$USERR4
 40
0.0
  9
$USERR5
 40
0.0
  9
$WORLDVIEW
 70
     1
  9
$SHADEDGE
 70
     3
  9
$SHADEDIF
 70
    70
  9
$TILEMODE
 70
     1
  9
$MAXACTVP
 70
    64
  9
$PINSBASE
 10
0.0
 20
0.0
 30
0.0
  9
$PLIMCHECK
 70
     0
  9
$PEXTMIN
 10
1.049999952316284
 20
0.7999999523162842
 30
0.0
  9
$PEXTMAX
 10
9.449999570846559
 20
7.199999570846558
 30
0.0
  9
$PLIMMIN
 10
-0.2500002402958907
 20
-0.2499999962453767
  9
$PLIMMAX
 10
10.74999951940822
 20
8.249999763458733
  9
$UNITMODE
 70
     0
  9
$VISRETAIN
 70
     1
  9
$PLINEGEN
 70
     0
  9
$PSLTSCALE
 70
     1
  9
$TREEDEPTH
 70
  3020
  9
$CMLSTYLE
  2
Standard
  9
$CMLJUST
 70
     0
  9
$CMLSCALE
 40
20.0
  9
$PROXYGRAPHICS
 70
     1
  9
$MEASUREMENT
 70
     0
  9
$CELWEIGHT
370
    -1
  9
$ENDCAPS
280
     0
  9
$JOINSTYLE
280
     0
  9
$LWDISPLAY
290
     0
  9
$INSUNITS
 70
     5
  9
$HYPERLINKBASE
  1

  9
$STYLESHEET
  1

  9
$XEDIT
290
     1
  9
$CEPSNTYPE
380
     0
  9
$PSTYLEMODE
290
     1
  9
$FINGERPRINTGUID
  2
{254E7024-7AB9-49E7-BF44-A0A83A010D83}
  9
$VERSIONGUID
  2
{5AEDB8BA-B2CC-4C4C-9C29-8B674BE8473C}
  9
$EXTNAMES
290
     1
  9
$PSVPSCALE
 40
0.0
  9
$OLESTARTUP
290
     0
  0
ENDSEC
  0
SECTION
  2
CLASSES
  0
CLASS
  1
ACDBDICTIONARYWDFLT
  2
AcDbDictionaryWithDefault
  3
ObjectDBX Classes
 90
        0
280
     0
281
     0
  0
CLASS
  1
ACDBPLACEHOLDER
  2
AcDbPlaceHolder
  3
ObjectDBX Classes
 90
        0
280
     0
281
     0
  0
CLASS
  1
LAYOUT
  2
AcDbLayout
  3
ObjectDBX Classes
 90
        0
280
     0
281
     0
  0
CLASS
  1
DICTIONARYVAR
  2
AcDbDictionaryVar
  3
ObjectDBX Classes
 90
        0
280
     0
281
     0
  0
CLASS
  1
SORTENTSTABLE
  2
AcDbSortentsTable
  3
ObjectDBX Classes
 90
        0
280
     0
281
     0
  0
CLASS
  1
AEC_VARS_DWG_SETUP
  2
AecDbVarsDwgSetup
  3
AecBase50|Product Desc: Autodesk Architectural Desktop 2007 |Company: Autodesk,Inc. |WEB Address: www.autodesk.com
 90
    32897
280
     0
281
     0
  0
CLASS
  1
AEC_DISP_REP_CONFIG
  2
AecDbDispRepConfig
  3
AecBase50|Product Desc: Autodesk Architectural Desktop 2007 |Company: Autodesk,Inc. |WEB Address: www.autodesk.com
 90
    32897
280
     0
281
     0
  0
CLASS
  1
AEC_DISP_REP_SET
  2
AecDbDispRepSet
  3
AecBase50|Product Desc: Autodesk Architectural Desktop 2007 |Company: Autodesk,Inc. |WEB Address: www.autodesk.com
 90
    32897
280
     0
281
     0
  0
CLASS
  1
AEC_DISP_REP_2D_SECTION
  2
AecDbDispRep2dSection
  3
AecBase50|Product Desc: Autodesk Architectural Desktop 2007 |Company: Autodesk,Inc. |WEB Address: www.autodesk.com
 90
    32897
280
     0
281
     0
  0
CLASS
  1
AEC_DISP_REP_ANCHOR_BUB_TO_GRID
  2
AecDbDispRepAnchorBubToGrid
  3
AecStructureBase50|Product Desc: Autodesk Architectural Desktop 2007 |Company: Autodesk,Inc. |WEB Address: www.autodesk.com
 90
    32897
280
     0
281
     0
  0
CLASS
  1
AEC_DISP_REP_ANCHOR_BUB_TO_GRID_MODEL
  2
AecDbDispRepAnchorBubToGridMdl
  3
AecStructureBase50|Product Desc: Autodesk Architectural Desktop 2007 |Company: Autodesk,Inc. |WEB Address: www.autodesk.com
 90
    32897
280
     0
281
     0
  0
CLASS
  1
AEC_DISP_REP_ANCHOR_ENT_TO_NODE
  2
AecDbDispRepAnchorEntToNode
  3
AecBaseEx50|Product Desc: Autodesk Architectural Desktop 2007 |Company: Autodesk,Inc. |WEB Address: www.autodesk.com
 90
    32897
280
     0
281
     0
  0
CLASS
  1
AEC_DISP_REP_ANCHOR_TAG_TO_ENT
  2
AecDbDispRepAnchorTagToEnt
  3
AecScheduleData50|Product Desc: Autodesk Architectural Desktop 2007 |Company: Autodesk,Inc. |WEB Address: www.autodesk.com
 90
    32897
280
     0
281
     0
  0
CLASS
  1
AEC_DISP_REP_AREA
  2
AecDbDispRepArea
  3
AecAreaCalculationBase50|Product Desc: Autodesk Architectural Desktop 2007 |Company: Autodesk,Inc. |WEB Address: www.autodesk.com
 90
    32897
280
     0
281
     0
  0
CLASS
  1
AEC_DISP_REP_AREA_DECOMPOSED
  2
AecDbDispRepAreaDecomposed
  3
AecAreaCalculationBase50|Product Desc: Autodesk Architectural Desktop 2007 |Company: Autodesk,Inc. |WEB Address: www.autodesk.com
 90
    32897
280
     0
281
     0
  0
CLASS
  1
AEC_DISP_REP_AREAGROUP
  2
AecDbDispRepAreaGroup
  3
AecAreaCalculationBase50|Product Desc: Autodesk Architectural Desktop 2007 |Company: Autodesk,Inc. |WEB Address: www.autodesk.com
 90
    32897
280
     0
281
     0
  0
CLASS
  1
AEC_DISP_REP_BDG_ELEVLINE_MODEL
  2
AecDbDispRepBdgElevLineModel
  3
AecArchBase50|Product Desc: Autodesk Architectural Desktop 2007 |Company: Autodesk,Inc. |WEB Address: www.autodesk.com
 90
    32897
280
     0
281
     0
  0
CLASS
  1
AEC_DISP_REP_BDG_SECTIONLINE_PLAN
  2
AecDbDispRepBdgElevLinePlan
  3
AecArchBase50|Product Desc: Autodesk Architectural Desktop 2007 |Company: Autodesk,Inc. |WEB Address: www.autodesk.com
 90
    32897
280
     0
281
     0
  0
CLASS
  1
AEC_DISP_REP_BDG_SECTIONLINE_MODEL
  2
AecDbDispRepBdgSectionLineModel
  3
AecArchBase50|Product Desc: Autodesk Architectural Desktop 2007 |Company: Autodesk,Inc. |WEB Address: www.autodesk.com
 90
    32897
280
     0
281
     0
  0
CLASS
  1
AEC_DISP_REP_BDG_SECTIONLINE_PLAN
  2
AecDbDispRepBdgSectionLinePlan
  3
AecArchBase50|Product Desc: Autodesk Architectural Desktop 2007 |Company: Autodesk,Inc. |WEB Address: www.autodesk.com
 90
    32897
280
     0
281
     0
  0
CLASS
  1
AEC_DISP_REP_BDG_SECTION_SUBDIV
  2
AecDbDispRepBdgSectionSubDiv
  3
AecArchBase50|Product Desc: Autodesk Architectural Desktop 2007 |Company: Autodesk,Inc. |WEB Address: www.autodesk.com
 90
    32897
280
     0
281
     0
  0
CLASS
  1
AEC_DISP_REP_CAMERA
  2
AecDbDispRepCamera
  3
AecBase50|Product Desc: Autodesk Architectural Desktop 2007 |Company: Autodesk,Inc. |WEB Address: www.autodesk.com
 90
    32897
280
     0
281
     0
  0
CLASS
  1
AEC_DISP_REP_CEILING_GRID
  2
AecDbDispRepCeilingGrid
  3
AecArchBase50|Product Desc: Autodesk Architectural Desktop 2007 |Company: Autodesk,Inc. |WEB Address: www.autodesk.com
 90
    33661
280
     0
281
     0
  0
CLASS
  1
AEC_DISP_REP_CEILING_GRID_MODEL
  2
AecDbDispRepCeilingGridModel
  3
AecArchBase50|Product Desc: Autodesk Architectural Desktop 2007 |Company: Autodesk,Inc. |WEB Address: www.autodesk.com
 90
    32897
280
     0
281
     0
  0
CLASS
  1
AEC_DISP_REP_CEILING_GRID_RCP
  2
AecDbDispRepCeilingGridRcp
  3
AecArchBase50|Product Desc: Autodesk Architectural Desktop 2007 |Company: Autodesk,Inc. |WEB Address: www.autodesk.com
 90
    32897
280
     0
281
     0
  0
CLASS
  1
AEC_DISP_REP_CLIP_VOLUME_MODEL
  2
AecDbDispRepClipVolModel
  3
AecBase50|Product Desc: Autodesk Architectural Desktop 2007 |Company: Autodesk,Inc. |WEB Address: www.autodesk.com
 90
    32897
280
     0
281
     0
  0
CLASS
  1
AEC_DISP_REP_CLIP_VOLUME_PLAN
  2
AecDbDispRepClipVolPlan
  3
AecBase50|Product Desc: Autodesk Architectural Desktop 2007 |Company: Autodesk,Inc. |WEB Address: www.autodesk.com
 90
    32897
280
     0
281
     0
  0
CLASS
  1
AEC_DISP_REP_CLIP_VOLUME_RESULT_SUBDIV
  2
AecDbDispRepClipVolResSubDiv
  3
AecBase50|Product Desc: Autodesk Architectural Desktop 2007 |Company: Autodesk,Inc. |WEB Address: www.autodesk.com
 90
    32897
280
     0
281
     0
  0
CLASS
  1
AEC_DISP_REP_CLIP_VOLUME_RESULT
  2
AecDbDispRepClipVolResult
  3
AecBase50|Product Desc: Autodesk Architectural Desktop 2007 |Company: Autodesk,Inc. |WEB Address: www.autodesk.com
 90
    32897
280
     0
281
     0
  0
CLASS
  1
AEC_DISP_REP_COLUMN_GRID
  2
AecDbDispRepColumnGrid
  3
AecStructureBase50|Product Desc: Autodesk Architectural Desktop 2007 |Company: Autodesk,Inc. |WEB Address: www.autodesk.com
 90
    32897
280
     0
281
     0
  0
CLASS
  1
AEC_DISP_REP_COLUMN_GRID_MODEL
  2
AecDbDispRepColumnGridModel
  3
AecStructureBase50|Product Desc: Autodesk Architectural Desktop 2007 |Company: Autodesk,Inc. |WEB Address: www.autodesk.com
 90
    32897
280
     0
281
     0
  0
CLASS
  1
AEC_DISP_REP_CURTAIN_WALL_LAYOUT_MODEL
  2
AecDbDispRepCurtainWallLayoutModel
  3
AecArchBase50|Product Desc: Autodesk Architectural Desktop 2007 |Company: Autodesk,Inc. |WEB Address: www.autodesk.com
 90
    32897
280
     0
281
     0
  0
CLASS
  1
AEC_DISP_REP_CURTAIN_WALL_LAYOUT_PLAN
  2
AecDbDispRepCurtainWallLayoutPlan
  3
AecArchBase50|Product Desc: Autodesk Architectural Desktop 2007 |Company: Autodesk,Inc. |WEB Address: www.autodesk.com
 90
    32897
280
     0
281
     0
  0
CLASS
  1
AEC_DISP_REP_CURTAIN_WALL_UNIT_MODEL
  2
AecDbDispRepCurtainWallUnitModel
  3
AecArchBase50|Product Desc: Autodesk Architectural Desktop 2007 |Company: Autodesk,Inc. |WEB Address: www.autodesk.com
 90
    32897
280
     0
281
     0
  0
CLASS
  1
AEC_DISP_REP_CURTAIN_WALL_UNIT_PLAN
  2
AecDbDispRepCurtainWallUnitPlan
  3
AecArchBase50|Product Desc: Autodesk Architectural Desktop 2007 |Company: Autodesk,Inc. |WEB Address: www.autodesk.com
 90
    32897
280
     0
281
     0
  0
CLASS
  1
AEC_DB_DISP_REP_DIM_GROUP_PLAN
  2
AecDbDispRepDimGroupPlan
  3
AecArchDACHBase50|Product Desc: Autodesk Architectural Desktop 2007 |Company: Autodesk,Inc. |WEB Address: www.autodesk.com
 90
    32897
280
     0
281
     0
  0
CLASS
  1
AEC_DISP_REP_DOOR_MODEL
  2
AecDbDispRepDoorModel
  3
AecArchBase50|Product Desc: Autodesk Architectural Desktop 2007 |Company: Autodesk,Inc. |WEB Address: www.autodesk.com
 90
    32897
280
     0
281
     0
  0
CLASS
  1
AEC_DISP_REP_DOOR_NOMINAL
  2
AecDbDispRepDoorNominal
  3
AecArchBase50|Product Desc: Autodesk Architectural Desktop 2007 |Company: Autodesk,Inc. |WEB Address: www.autodesk.com
 90
    32897
280
     0
281
     0
  0
CLASS
  1
AEC_DISP_REP_DOOR_PLAN
  2
AecDbDispRepDoorPlan
  3
AecArchBase50|Product Desc: Autodesk Architectural Desktop 2007 |Company: Autodesk,Inc. |WEB Address: www.autodesk.com
 90
    32897
280
     0
281
     0
  0
CLASS
  1
AEC_DISP_REP_EDITINPLACEPROFILE
  2
AecDbDispRepEditInPlaceProfile
  3
AecBase50|Product Desc: Autodesk Architectural Desktop 2007 |Company: Autodesk,Inc. |WEB Address: www.autodesk.com
 90
    32897
280
     0
281
     0
  0
CLASS
  1
AEC_DISP_REP_ENT_REF
  2
AecDbDispRepEntRef
  3
AecBase50|Product Desc: Autodesk Architectural Desktop 2007 |Company: Autodesk,Inc. |WEB Address: www.autodesk.com
 90
    32897
280
     0
281
     0
  0
CLASS
  1
AEC_DISP_REP_LAYOUT_CURVE
  2
AecDbDispRepLayoutCurve
  3
AecBase50|Product Desc: Autodesk Architectural Desktop 2007 |Company: Autodesk,Inc. |WEB Address: www.autodesk.com
 90
    32897
280
     0
281
     0
  0
CLASS
  1
AEC_DISP_REP_LAYOUT_GRID2D
  2
AecDbDispRepLayoutGrid2d
  3
AecBase50|Product Desc: Autodesk Architectural Desktop 2007 |Company: Autodesk,Inc. |WEB Address: www.autodesk.com
 90
    32897
280
     0
281
     0
  0
CLASS
  1
AEC_DISP_REP_LAYOUT_GRID3D
  2
AecDbDispRepLayoutGrid3d
  3
AecBase50|Product Desc: Autodesk Architectural Desktop 2007 |Company: Autodesk,Inc. |WEB Address: www.autodesk.com
 90
    32897
280
     0
281
     0
  0
CLASS
  1
AEC_DISP_REP_MASKBLOCK_REF
  2
AecDbDispRepMaskBlockRef
  3
AecBase50|Product Desc: Autodesk Architectural Desktop 2007 |Company: Autodesk,Inc. |WEB Address: www.autodesk.com
 90
    32897
280
     0
281
     0
  0
CLASS
  1
AEC_DISP_REP_MASKBLOCK_REF_RCP
  2
AecDbDispRepMaskBlockRefRcp
  3
AecArchBase50|Product Desc: Autodesk Architectural Desktop 2007 |Company: Autodesk,Inc. |WEB Address: www.autodesk.com
 90
    32897
280
     0
281
     0
  0
CLASS
  1
AEC_DISP_REP_MASS_ELEM_MODEL
  2
AecDbDispRepMassElemModel
  3
AecBaseEx50|Product Desc: Autodesk Architectural Desktop 2007 |Company: Autodesk,Inc. |WEB Address: www.autodesk.com
 90
    32897
280
     0
281
     0
  0
CLASS
  1
AEC_DISP_REP_MASS_ELEM_SCHEM
  2
AecDbDispRepMassElemSchem
  3
AecBaseEx50|Product Desc: Autodesk Architectural Desktop 2007 |Company: Autodesk,Inc. |WEB Address: www.autodesk.com
 90
    32897
280
     0
281
     0
  0
CLASS
  1
AEC_DISP_REP_MASS_GROUP_MODEL
  2
AecDbDispRepMassGroupModel
  3
AecBaseEx50|Product Desc: Autodesk Architectural Desktop 2007 |Company: Autodesk,Inc. |WEB Address: www.autodesk.com
 90
    32897
280
     0
281
     0
  0
CLASS
  1
AEC_DISP_REP_MASS_GROUP_PLAN
  2
AecDbDispRepMassGroupPlan
  3
AecBaseEx50|Product Desc: Autodesk Architectural Desktop 2007 |Company: Autodesk,Inc. |WEB Address: www.autodesk.com
 90
    32897
280
     0
281
     0
  0
CLASS
  1
AEC_DISP_REP_MATERIAL
  2
AecDbDispRepMaterial
  3
AecBase50|Product Desc: Autodesk Architectural Desktop 2007 |Company: Autodesk,Inc. |WEB Address: www.autodesk.com
 90
    32897
280
     0
281
     0
  0
CLASS
  1
AEC_DISP_REP_MVBLOCK_REF
  2
AecDbDispRepMvBlockRef
  3
AecBase50|Product Desc: Autodesk Architectural Desktop 2007 |Company: Autodesk,Inc. |WEB Address: www.autodesk.com
 90
    32897
280
     0
281
     0
  0
CLASS
  1
AEC_DISP_REP_MVBLOCK_REF_MODEL
  2
AecDbDispRepMvBlockRefModel
  3
AecBase50|Product Desc: Autodesk Architectural Desktop 2007 |Company: Autodesk,Inc. |WEB Address: www.autodesk.com
 90
    32897
280
     0
281
     0
  0
CLASS
  1
AEC_DISP_REP_OPENING
  2
AecDbDispRepOpening
  3
AecArchBase50|Product Desc: Autodesk Architectural Desktop 2007 |Company: Autodesk,Inc. |WEB Address: www.autodesk.com
 90
    32897
280
     0
281
     0
  0
CLASS
  1
AEC_DISP_REP_OPENING_MODEL
  2
AecDbDispRepOpeningModel
  3
AecArchBase50|Product Desc: Autodesk Architectural Desktop 2007 |Company: Autodesk,Inc. |WEB Address: www.autodesk.com
 90
    32897
280
     0
281
     0
  0
CLASS
  1
AEC_DISP_REP_POLYGON_MODEL
  2
AecDbDispRepPolygonModel
  3
AecBaseEx50|Product Desc: Autodesk Architectural Desktop 2007 |Company: Autodesk,Inc. |WEB Address: www.autodesk.com
 90
    32897
280
     0
281
     0
  0
CLASS
  1
AEC_DISP_REP_RAILING_MODEL
  2
AecDbDispRepRailingModel
  3
AecArchBase50|Product Desc: Autodesk Architectural Desktop 2007 |Company: Autodesk,Inc. |WEB Address: www.autodesk.com
 90
    32897
280
     0
281
     0
  0
CLASS
  1
AEC_DISP_REP_RAILING_PLAN
  2
AecDbDispRepRailingPlan
  3
AecArchBase50|Product Desc: Autodesk Architectural Desktop 2007 |Company: Autodesk,Inc. |WEB Address: www.autodesk.com
 90
    32897
280
     0
281
     0
  0
CLASS
  1
AEC_DISP_REP_ROOF_MODEL
  2
AecDbDispRepRoofModel
  3
AecArchBase50|Product Desc: Autodesk Architectural Desktop 2007 |Company: Autodesk,Inc. |WEB Address: www.autodesk.com
 90
    32897
280
     0
281
     0
  0
CLASS
  1
AEC_DISP_REP_ROOF_PLAN
  2
AecDbDispRepRoofPlan
  3
AecArchBase50|Product Desc: Autodesk Architectural Desktop 2007 |Company: Autodesk,Inc. |WEB Address: www.autodesk.com
 90
    32897
280
     0
281
     0
  0
CLASS
  1
AEC_DISP_REP_ROOFSLAB_MODEL
  2
AecDbDispRepRoofSlabModel
  3
AecArchBase50|Product Desc: Autodesk Architectural Desktop 2007 |Company: Autodesk,Inc. |WEB Address: www.autodesk.com
 90
    32897
280
     0
281
     0
  0
CLASS
  1
AEC_DISP_REP_ROOFSLAB_PLAN
  2
AecDbDispRepRoofSlabPlan
  3
AecArchBase50|Product Desc: Autodesk Architectural Desktop 2007 |Company: Autodesk,Inc. |WEB Address: www.autodesk.com
 90
    32897
280
     0
281
     0
  0
CLASS
  1
AEC_DISP_REP_SCHEDULE_TABLE
  2
AecDbDispRepScheduleTable
  3
AecSchedule50|Product Desc: Autodesk Architectural Desktop 2007 |Company: Autodesk,Inc. |WEB Address: www.autodesk.com
 90
    32897
280
     0
281
     0
  0
CLASS
  1
AEC_DISP_REP_SLAB_MODEL
  2
AecDbDispRepSlabModel
  3
AecArchBase50|Product Desc: Autodesk Architectural Desktop 2007 |Company: Autodesk,Inc. |WEB Address: www.autodesk.com
 90
    32897
280
     0
281
     0
  0
CLASS
  1
AEC_DISP_REP_SLAB_PLAN
  2
AecDbDispRepSlabPlan
  3
AecArchBase50|Product Desc: Autodesk Architectural Desktop 2007 |Company: Autodesk,Inc. |WEB Address: www.autodesk.com
 90
    32897
280
     0
281
     0
  0
CLASS
  1
AEC_DISP_REP_SLICE
  2
AecDbDispRepSlice
  3
AecBase50|Product Desc: Autodesk Architectural Desktop 2007 |Company: Autodesk,Inc. |WEB Address: www.autodesk.com
 90
    32897
280
     0
281
     0
  0
CLASS
  1
AEC_DISP_REP_SPACE_BOUNDARY_MODEL
  2
AecDbDispRepSpaceBoundaryModel
  3
AecArchBase50|Product Desc: Autodesk Architectural Desktop 2007 |Company: Autodesk,Inc. |WEB Address: www.autodesk.com
 90
    32897
280
     0
281
     0
  0
CLASS
  1
AEC_DISP_REP_SPACE_BOUNDARY_PLAN
  2
AecDbDispRepSpaceBoundaryPlan
  3
AecArchBase50|Product Desc: Autodesk Architectural Desktop 2007 |Company: Autodesk,Inc. |WEB Address: www.autodesk.com
 90
    32897
280
     0
281
     0
  0
CLASS
  1
AEC_DISP_REP_SPACE_BOUNDARY_SCHEM
  2
AecDbDispRepSpaceBoundarySketch
  3
AecArchBase50|Product Desc: Autodesk Architectural Desktop 2007 |Company: Autodesk,Inc. |WEB Address: www.autodesk.com
 90
    32897
280
     0
281
     0
  0
CLASS
  1
AEC_DISP_REP_SPACE_MODEL
  2
AecDbDispRepSpaceModel
  3
AecArchBase50|Product Desc: Autodesk Architectural Desktop 2007 |Company: Autodesk,Inc. |WEB Address: www.autodesk.com
 90
    32897
280
     0
281
     0
  0
CLASS
  1
AEC_DISP_REP_SPACE_PLAN
  2
AecDbDispRepSpacePlan
  3
AecArchBase50|Product Desc: Autodesk Architectural Desktop 2007 |Company: Autodesk,Inc. |WEB Address: www.autodesk.com
 90
    32897
280
     0
281
     0
  0
CLASS
  1
AEC_DISP_REP_STAIR_MODEL
  2
AecDbDispRepStairModel
  3
AecArchBase50|Product Desc: Autodesk Architectural Desktop 2007 |Company: Autodesk,Inc. |WEB Address: www.autodesk.com
 90
    32897
280
     0
281
     0
  0
CLASS
  1
AEC_DISP_REP_STAIR_PLAN
  2
AecDbDispRepStairPlan
  3
AecArchBase50|Product Desc: Autodesk Architectural Desktop 2007 |Company: Autodesk,Inc. |WEB Address: www.autodesk.com
 90
    32897
280
     0
281
     0
  0
CLASS
  1
AEC_DISP_REP_WALL_GRAPH
  2
AecDbDispRepWallGraph
  3
AecArchBase50|Product Desc: Autodesk Architectural Desktop 2007 |Company: Autodesk,Inc. |WEB Address: www.autodesk.com
 90
    32897
280
     0
281
     0
  0
CLASS
  1
AEC_DISP_REP_WALL_MODEL
  2
AecDbDispRepWallModel
  3
AecArchBase50|Product Desc: Autodesk Architectural Desktop 2007 |Company: Autodesk,Inc. |WEB Address: www.autodesk.com
 90
    32897
280
     0
281
     0
  0
CLASS
  1
AEC_DISP_REP_WALL_PLAN
  2
AecDbDispRepWallPlan
  3
AecArchBase50|Product Desc: Autodesk Architectural Desktop 2007 |Company: Autodesk,Inc. |WEB Address: www.autodesk.com
 90
    32897
280
     0
281
     0
  0
CLASS
  1
AEC_DISP_REP_WALL_SCHEM
  2
AecDbDispRepWallSchem
  3
AecArchBase50|Product Desc: Autodesk Architectural Desktop 2007 |Company: Autodesk,Inc. |WEB Address: www.autodesk.com
 90
    32897
280
     0
281
     0
  0
CLASS
  1
AEC_DISP_REP_WINDOW_ASSEMBLY_MODEL
  2
AecDbDispRepWindowAssemblyModel
  3
AecArchBase50|Product Desc: Autodesk Architectural Desktop 2007 |Company: Autodesk,Inc. |WEB Address: www.autodesk.com
 90
    32897
280
     0
281
     0
  0
CLASS
  1
AEC_DISP_REP_WINDOW_ASSEMBLY_PLAN
  2
AecDbDispRepWindowAssemblyPlan
  3
AecArchBase50|Product Desc: Autodesk Architectural Desktop 2007 |Company: Autodesk,Inc. |WEB Address: www.autodesk.com
 90
    32897
280
     0
281
     0
  0
CLASS
  1
AEC_AECDBDISPREPWINDOWASSEMBLYPLAN100
  2
AecDbDispRepWindowAssemblyPlan100
  3
AecArchDACHBase50|Product Desc: Autodesk Architectural Desktop 2007 |Company: Autodesk,Inc. |WEB Address: www.autodesk.com
 90
    32897
280
     0
281
     0
  0
CLASS
  1
AEC_DISP_REP_WINDOW_MODEL
  2
AecDbDispRepWindowModel
  3
AecArchBase50|Product Desc: Autodesk Architectural Desktop 2007 |Company: Autodesk,Inc. |WEB Address: www.autodesk.com
 90
    32897
280
     0
281
     0
  0
CLASS
  1
AEC_DISP_REP_WINDOW_NOMINAL
  2
AecDbDispRepWindowNominal
  3
AecArchBase50|Product Desc: Autodesk Architectural Desktop 2007 |Company: Autodesk,Inc. |WEB Address: www.autodesk.com
 90
    32897
280
     0
281
     0
  0
CLASS
  1
AEC_DISP_REP_WINDOW_PLAN
  2
AecDbDispRepWindowPlan
  3
AecArchBase50|Product Desc: Autodesk Architectural Desktop 2007 |Company: Autodesk,Inc. |WEB Address: www.autodesk.com
 90
    32897
280
     0
281
     0
  0
CLASS
  1
AECS_DISP_REP_MEMBER_LOGICAL
  2
AecsDbDispRepMemberLogical
  3
AecStructureBase50|Product Desc: Autodesk Architectural Desktop 2007 |Company: Autodesk,Inc. |WEB Address: www.autodesk.com
 90
    32897
280
     0
281
     0
  0
CLASS
  1
AECS_DISP_REP_MEMBER_MODEL_DESIGN
  2
AecsDbDispRepMemberModelDesign
  3
AecStructureBase50|Product Desc: Autodesk Architectural Desktop 2007 |Company: Autodesk,Inc. |WEB Address: www.autodesk.com
 90
    32897
280
     0
281
     0
  0
CLASS
  1
AECS_DISP_REP_MEMBER_PLAN_DESIGN
  2
AecsDbDispRepMemberPlanDesign
  3
AecStructureBase50|Product Desc: Autodesk Architectural Desktop 2007 |Company: Autodesk,Inc. |WEB Address: www.autodesk.com
 90
    32897
280
     0
281
     0
  0
CLASS
  1
AEC_DISP_PROPS_ENT
  2
AecDbDispPropsEnt
  3
AecBase50|Product Desc: Autodesk Architectural Desktop 2007 |Company: Autodesk,Inc. |WEB Address: www.autodesk.com
 90
    32897
280
     0
281
     0
  0
CLASS
  1
AEC_DISP_PROPS_CLIP_VOLUME
  2
AecDbDispPropsClipVol
  3
AecBase50|Product Desc: Autodesk Architectural Desktop 2007 |Company: Autodesk,Inc. |WEB Address: www.autodesk.com
 90
    32897
280
     0
281
     0
  0
CLASS
  1
AEC_DISP_PROPS_SLICE
  2
AecDbDispPropsSlice
  3
AecBase50|Product Desc: Autodesk Architectural Desktop 2007 |Company: Autodesk,Inc. |WEB Address: www.autodesk.com
 90
    32897
280
     0
281
     0
  0
CLASS
  1
AEC_DISP_PROPS_ROOFSLAB_PLAN
  2
AecDbDispPropsRoofSlabPlan
  3
AecArchBase50|Product Desc: Autodesk Architectural Desktop 2007 |Company: Autodesk,Inc. |WEB Address: www.autodesk.com
 90
    32897
280
     0
281
     0
  0
CLASS
  1
AEC_DISP_PROPS_GRID_ASSEMBLY_MODEL
  2
AecDbDispPropsGridAssemblyModel
  3
AecArchBase50|Product Desc: Autodesk Architectural Desktop 2007 |Company: Autodesk,Inc. |WEB Address: www.autodesk.com
 90
    32897
280
     0
281
     0
  0
CLASS
  1
AEC_DISP_PROPS_ROOF
  2
AecDbDispPropsRoof
  3
AecArchBase50|Product Desc: Autodesk Architectural Desktop 2007 |Company: Autodesk,Inc. |WEB Address: www.autodesk.com
 90
    32897
280
     0
281
     0
  0
CLASS
  1
AEC_DISP_PROPS_SPACE_MODEL
  2
AecDbDispPropsSpaceModel
  3
AecArchBase50|Product Desc: Autodesk Architectural Desktop 2007 |Company: Autodesk,Inc. |WEB Address: www.autodesk.com
 90
    32897
280
     0
281
     0
  0
CLASS
  1
AEC_DISP_PROPS_EDITINPLACEPROFILE_MODEL
  2
AecDbDispPropsEditInPlaceProfile
  3
AecBase50|Product Desc: Autodesk Architectural Desktop 2007 |Company: Autodesk,Inc. |WEB Address: www.autodesk.com
 90
    32897
280
     0
281
     0
  0
CLASS
  1
AEC_DISP_PROPS_DOOR
  2
AecDbDispPropsDoor
  3
AecArchBase50|Product Desc: Autodesk Architectural Desktop 2007 |Company: Autodesk,Inc. |WEB Address: www.autodesk.com
 90
    32897
280
     0
281
     0
  0
CLASS
  1
AEC_DISP_PROPS_MASKBLOCK
  2
AecDbDispPropsMaskBlock
  3
AecBase50|Product Desc: Autodesk Architectural Desktop 2007 |Company: Autodesk,Inc. |WEB Address: www.autodesk.com
 90
    32897
280
     0
281
     0
  0
CLASS
  1
AEC_DISP_PROPS_SPACE_PLAN
  2
AecDbDispPropsSpacePlan
  3
AecArchBase50|Product Desc: Autodesk Architectural Desktop 2007 |Company: Autodesk,Inc. |WEB Address: www.autodesk.com
 90
    32897
280
     0
281
     0
  0
CLASS
  1
AEC_DISP_PROPS_RAILING_PLAN
  2
AecDbDispPropsRailingPlan
  3
AecArchBase50|Product Desc: Autodesk Architectural Desktop 2007 |Company: Autodesk,Inc. |WEB Address: www.autodesk.com
 90
    32897
280
     0
281
     0
  0
CLASS
  1
AEC_DISP_PROPS_LAYOUT_GRID2D
  2
AecDbDispPropsLayoutGrid2d
  3
AecBase50|Product Desc: Autodesk Architectural Desktop 2007 |Company: Autodesk,Inc. |WEB Address: www.autodesk.com
 90
    32897
280
     0
281
     0
  0
CLASS
  1
AEC_DISP_PROPS_CLIP_VOLUME_RESULT
  2
AecDbDispPropsClipVolResSubDiv
  3
AecBase50|Product Desc: Autodesk Architectural Desktop 2007 |Company: Autodesk,Inc. |WEB Address: www.autodesk.com
 90
    32897
280
     0
281
     0
  0
CLASS
  1
AEC_DISP_PROPS_STAIR_MODEL
  2
AecDbDispPropsStairModel
  3
AecArchBase50|Product Desc: Autodesk Architectural Desktop 2007 |Company: Autodesk,Inc. |WEB Address: www.autodesk.com
 90
    32897
280
     0
281
     0
  0
CLASS
  1
AEC_DISP_PROPS_LAYOUT_CURVE
  2
AecDbDispPropsLayoutCurve
  3
AecBase50|Product Desc: Autodesk Architectural Desktop 2007 |Company: Autodesk,Inc. |WEB Address: www.autodesk.com
 90
    32897
280
     0
281
     0
  0
CLASS
  1
AEC_DISP_PROPS_POLYGON_MODEL
  2
AecDbDispPropsPolygonModel
  3
AecBaseEx50|Product Desc: Autodesk Architectural Desktop 2007 |Company: Autodesk,Inc. |WEB Address: www.autodesk.com
 90
    32897
280
     0
281
     0
  0
CLASS
  1
AEC_DISP_PROPS_MASS_GROUP
  2
AecDbDispPropsMassGroup
  3
AecBaseEx50|Product Desc: Autodesk Architectural Desktop 2007 |Company: Autodesk,Inc. |WEB Address: www.autodesk.com
 90
    32897
280
     0
281
     0
  0
CLASS
  1
AEC_DISP_PROPS_STAIR_PLAN
  2
AecDbDispPropsStairPlan
  3
AecArchBase50|Product Desc: Autodesk Architectural Desktop 2007 |Company: Autodesk,Inc. |WEB Address: www.autodesk.com
 90
    32897
280
     0
281
     0
  0
CLASS
  1
AEC_DISP_PROPS_OPENING
  2
AecDbDispPropsOpening
  3
AecArchBase50|Product Desc: Autodesk Architectural Desktop 2007 |Company: Autodesk,Inc. |WEB Address: www.autodesk.com
 90
    32897
280
     0
281
     0
  0
CLASS
  1
AEC_DISP_PROPS_WALL_GRAPH
  2
AecDbDispPropsWallGraph
  3
AecArchBase50|Product Desc: Autodesk Architectural Desktop 2007 |Company: Autodesk,Inc. |WEB Address: www.autodesk.com
 90
    32897
280
     0
281
     0
  0
CLASS
  1
AEC_DISP_PROPS_DOOR_NOMINAL
  2
AecDbDispPropsDoorNominal
  3
AecArchBase50|Product Desc: Autodesk Architectural Desktop 2007 |Company: Autodesk,Inc. |WEB Address: www.autodesk.com
 90
    32897
280
     0
281
     0
  0
CLASS
  1
AEC_DISP_PROPS_SLAB
  2
AecDbDispPropsSlab
  3
AecArchBase50|Product Desc: Autodesk Architectural Desktop 2007 |Company: Autodesk,Inc. |WEB Address: www.autodesk.com
 90
    32897
280
     0
281
     0
  0
CLASS
  1
AEC_DISP_PROPS_WALL_MODEL
  2
AecDbDispPropsWallModel
  3
AecArchBase50|Product Desc: Autodesk Architectural Desktop 2007 |Company: Autodesk,Inc. |WEB Address: www.autodesk.com
 90
    32897
280
     0
281
     0
  0
CLASS
  1
AEC_DISP_PROPS_MATERIAL
  2
AecDbDispPropsMaterial
  3
AecBase50|Product Desc: Autodesk Architectural Desktop 2007 |Company: Autodesk,Inc. |WEB Address: www.autodesk.com
 90
    32897
280
     0
281
     0
  0
CLASS
  1
AEC_DISP_PROPS_WINDOW
  2
AecDbDispPropsWindow
  3
AecArchBase50|Product Desc: Autodesk Architectural Desktop 2007 |Company: Autodesk,Inc. |WEB Address: www.autodesk.com
 90
    32897
280
     0
281
     0
  0
CLASS
  1
AEC_DISP_PROPS_LAYOUT_GRID3D
  2
AecDbDispPropsLayoutGrid3d
  3
AecBase50|Product Desc: Autodesk Architectural Desktop 2007 |Company: Autodesk,Inc. |WEB Address: www.autodesk.com
 90
    32897
280
     0
281
     0
  0
CLASS
  1
AEC_DISP_PROPS_GRID_ASSEMBLY_PLAN
  2
AecDbDispPropsGridAssemblyPlan
  3
AecArchBase50|Product Desc: Autodesk Architectural Desktop 2007 |Company: Autodesk,Inc. |WEB Address: www.autodesk.com
 90
    32897
280
     0
281
     0
  0
CLASS
  1
AEC_DISP_PROPS_WALL_SCHEM
  2
AecDbDispPropsWallSchem
  3
AecArchBase50|Product Desc: Autodesk Architectural Desktop 2007 |Company: Autodesk,Inc. |WEB Address: www.autodesk.com
 90
    32897
280
     0
281
     0
  0
CLASS
  1
AEC_DISP_PROPS_WALL_PLAN
  2
AecDbDispPropsWallPlan
  3
AecArchBase50|Product Desc: Autodesk Architectural Desktop 2007 |Company: Autodesk,Inc. |WEB Address: www.autodesk.com
 90
    32897
280
     0
281
     0
  0
CLASS
  1
AEC_DISP_PROPS_SPACE_BOUNDARY
  2
AecDbDispPropsSpaceBoundary
  3
AecArchBase50|Product Desc: Autodesk Architectural Desktop 2007 |Company: Autodesk,Inc. |WEB Address: www.autodesk.com
 90
    32897
280
     0
281
     0
  0
CLASS
  1
AEC_DISP_PROPS_SLAB_PLAN
  2
AecDbDispPropsSlabPlan
  3
AecArchBase50|Product Desc: Autodesk Architectural Desktop 2007 |Company: Autodesk,Inc. |WEB Address: www.autodesk.com
 90
    32897
280
     0
281
     0
  0
CLASS
  1
AEC_DISP_PROPS_RAILING_MODEL
  2
AecDbDispPropsRailingModel
  3
AecArchBase50|Product Desc: Autodesk Architectural Desktop 2007 |Company: Autodesk,Inc. |WEB Address: www.autodesk.com
 90
    32897
280
     0
281
     0
  0
CLASS
  1
AEC_DISP_PROPS_MASS_ELEM_MODEL
  2
AecDbDispPropsMassElem
  3
AecBaseEx50|Product Desc: Autodesk Architectural Desktop 2007 |Company: Autodesk,Inc. |WEB Address: www.autodesk.com
 90
    32897
280
     0
281
     0
  0
CLASS
  1
AEC_DISP_PROPS_DIM
  2
AecDbDispPropsDimGroup
  3
AecArchDACHBase50|Product Desc: Autodesk Architectural Desktop 2007 |Company: Autodesk,Inc. |WEB Address: www.autodesk.com
 90
    32897
280
     0
281
     0
  0
CLASS
  1
AEC_DISP_PROPS_ROOFSLAB
  2
AecDbDispPropsRoofSlab
  3
AecArchBase50|Product Desc: Autodesk Architectural Desktop 2007 |Company: Autodesk,Inc. |WEB Address: www.autodesk.com
 90
    32897
280
     0
281
     0
  0
CLASS
  1
AEC_DISP_PROPS_ENT_REF
  2
AecDbDispPropsEntRef
  3
AecBase50|Product Desc: Autodesk Architectural Desktop 2007 |Company: Autodesk,Inc. |WEB Address: www.autodesk.com
 90
    32897
280
     0
281
     0
  0
CLASS
  1
AEC_DISP_PROPS_2D_SECTION
  2
AecDbDispProps2dSection
  3
AecBase50|Product Desc: Autodesk Architectural Desktop 2007 |Company: Autodesk,Inc. |WEB Address: www.autodesk.com
 90
    32897
280
     0
281
     0
  0
CLASS
  1
AECS_DISP_PROPS_MEMBER_LOGICAL
  2
AecsDbDispPropsMemberLogical
  3
AecStructureBase50|Product Desc: Autodesk Architectural Desktop 2007 |Company: Autodesk,Inc. |WEB Address: www.autodesk.com
 90
    32897
280
     0
281
     0
  0
CLASS
  1
AEC_DISP_PROPS_AREA_DECOMPOSED
  2
AecDbDispPropsAreaDecomposed
  3
AecAreaCalculationBase50|Product Desc: Autodesk Architectural Desktop 2007 |Company: Autodesk,Inc. |WEB Address: www.autodesk.com
 90
    32897
280
     0
281
     0
  0
CLASS
  1
AEC_DISP_PROPS_CAMERA
  2
AecDbDispPropsCamera
  3
AecBase50|Product Desc: Autodesk Architectural Desktop 2007 |Company: Autodesk,Inc. |WEB Address: www.autodesk.com
 90
    32897
280
     0
281
     0
  0
CLASS
  1
AECS_DISP_PROPS_MEMBER
  2
AecsDbDispPropsMember
  3
AecStructureBase50|Product Desc: Autodesk Architectural Desktop 2007 |Company: Autodesk,Inc. |WEB Address: www.autodesk.com
 90
    32897
280
     0
281
     0
  0
CLASS
  1
AECS_DISP_PROPS_MEMBER_PLAN
  2
AecsDbDispPropsMemberPlan
  3
AecStructureBase50|Product Desc: Autodesk Architectural Desktop 2007 |Company: Autodesk,Inc. |WEB Address: www.autodesk.com
 90
    32897
280
     0
281
     0
  0
CLASS
  1
AEC_DISP_PROPS_AREAGROUP
  2
AecDbDispPropsAreaGroup
  3
AecAreaCalculationBase50|Product Desc: Autodesk Architectural Desktop 2007 |Company: Autodesk,Inc. |WEB Address: www.autodesk.com
 90
    32897
280
     0
281
     0
  0
CLASS
  1
AEC_DISP_PROPS_WINDOW_NOMINAL
  2
AecDbDispPropsWindowNominal
  3
AecArchBase50|Product Desc: Autodesk Architectural Desktop 2007 |Company: Autodesk,Inc. |WEB Address: www.autodesk.com
 90
    32897
280
     0
281
     0
  0
CLASS
  1
AEC_DISP_PROPS_AREA
  2
AecDbDispPropsArea
  3
AecAreaCalculationBase50|Product Desc: Autodesk Architectural Desktop 2007 |Company: Autodesk,Inc. |WEB Address: www.autodesk.com
 90
    32897
280
     0
281
     0
  0
CLASS
  1
AEC_DISP_PROPS_SCHEDULE_TABLE
  2
AecDbDispPropsScheduleTable
  3
AecSchedule50|Product Desc: Autodesk Architectural Desktop 2007 |Company: Autodesk,Inc. |WEB Address: www.autodesk.com
 90
    32897
280
     0
281
     0
  0
CLASS
  1
AEC_LAYERKEY_STYLE
  2
AecDbLayerKeyStyle
  3
AecBase50|Product Desc: Autodesk Architectural Desktop 2007 |Company: Autodesk,Inc. |WEB Address: www.autodesk.com
 90
    32897
280
     0
281
     0
  0
CLASS
  1
AEC_VARS_ARCHBASE
  2
AecDbVarsArchBase
  3
AecArchBase50|Product Desc: Autodesk Architectural Desktop 2007 |Company: Autodesk,Inc. |WEB Address: www.autodesk.com
 90
    32897
280
     0
281
     0
  0
CLASS
  1
AEC_VARS_MUNICH
  2
AecDbVarsMunich
  3
AecArchDACHBase50|Product Desc: Autodesk Architectural Desktop 2007 |Company: Autodesk,Inc. |WEB Address: www.autodesk.com
 90
    32897
280
     0
281
     0
  0
CLASS
  1
AEC_NOTIFICATION_TRACKER
  2
AecDbNotificationTracker
  3
AecBase50|Product Desc: Autodesk Architectural Desktop 2007 |Company: Autodesk,Inc. |WEB Address: www.autodesk.com
 90
    32897
280
     0
281
     0
  0
CLASS
  1
AEC_DISP_REP_ANCHOR
  2
AecDbDispRepAnchor
  3
AecBase50|Product Desc: Autodesk Architectural Desktop 2007 |Company: Autodesk,Inc. |WEB Address: www.autodesk.com
 90
    32897
280
     0
281
     0
  0
CLASS
  1
AEC_DISP_REP_POLYGON_TRUECOLOUR
  2
AecDbDispRepPolygonTrueColour
  3
AecBaseEx50|Product Desc: Autodesk Architectural Desktop 2007 |Company: Autodesk,Inc. |WEB Address: www.autodesk.com
 90
    32897
280
     0
281
     0
  0
CLASS
  1
AEC_DISP_PROPS_POLYGON_TRUECOLOUR
  2
AecDbDispPropsPolygonTrueColour
  3
AecBaseEx50|Product Desc: Autodesk Architectural Desktop 2007 |Company: Autodesk,Inc. |WEB Address: www.autodesk.com
 90
    32897
280
     0
281
     0
  0
CLASS
  1
AEC_DISP_REP_BDG_ELEVLINE_RCP
  2
AecDbDispRepBdgElevLineRcp
  3
AecArchBase50|Product Desc: Autodesk Architectural Desktop 2007 |Company: Autodesk,Inc. |WEB Address: www.autodesk.com
 90
    32897
280
     0
281
     0
  0
CLASS
  1
AEC_DISP_REP_BDG_SECTIONLINE_RCP
  2
AecDbDispRepBdgSectionLineRcp
  3
AecArchBase50|Product Desc: Autodesk Architectural Desktop 2007 |Company: Autodesk,Inc. |WEB Address: www.autodesk.com
 90
    32897
280
     0
281
     0
  0
CLASS
  1
AEC_DISP_REP_BDG_SECTION_MODEL
  2
AecDbDispRepBdgSectionModel
  3
AecArchBase50|Product Desc: Autodesk Architectural Desktop 2007 |Company: Autodesk,Inc. |WEB Address: www.autodesk.com
 90
    32897
280
     0
281
     0
  0
CLASS
  1
AEC_DISP_REP_DOOR_ELEV
  2
AecDbDispRepDoorElev
  3
AecArchBase50|Product Desc: Autodesk Architectural Desktop 2007 |Company: Autodesk,Inc. |WEB Address: www.autodesk.com
 90
    32897
280
     0
281
     0
  0
CLASS
  1
AEC_DISP_REP_DOOR_RCP
  2
AecDbDispRepDoorRcp
  3
AecArchBase50|Product Desc: Autodesk Architectural Desktop 2007 |Company: Autodesk,Inc. |WEB Address: www.autodesk.com
 90
    32897
280
     0
281
     0
  0
CLASS
  1
AEC_DISP_REP_DOOR_THRESHOLD_PLAN
  2
AecDbDispRepDoorThresholdPlan
  3
AecArchBase50|Product Desc: Autodesk Architectural Desktop 2007 |Company: Autodesk,Inc. |WEB Address: www.autodesk.com
 90
    32897
280
     0
281
     0
  0
CLASS
  1
AEC_DISP_PROPS_DOOR_THRESHOLD_PLAN
  2
AecDbDispPropsDoorThresholdPlan
  3
AecArchBase50|Product Desc: Autodesk Architectural Desktop 2007 |Company: Autodesk,Inc. |WEB Address: www.autodesk.com
 90
    32897
280
     0
281
     0
  0
CLASS
  1
AEC_DISP_REP_MASS_ELEM_RCP
  2
AecDbDispRepMassElemRcp
  3
AecArchBase50|Product Desc: Autodesk Architectural Desktop 2007 |Company: Autodesk,Inc. |WEB Address: www.autodesk.com
 90
    32897
280
     0
281
     0
  0
CLASS
  1
AEC_DISP_REP_MASS_GROUP_RCP
  2
AecDbDispRepMassGroupRcp
  3
AecArchBase50|Product Desc: Autodesk Architectural Desktop 2007 |Company: Autodesk,Inc. |WEB Address: www.autodesk.com
 90
    32897
280
     0
281
     0
  0
CLASS
  1
AEC_DISP_REP_MVBLOCK_REF_RCP
  2
AecDbDispRepMvBlockRefRcp
  3
AecArchBase50|Product Desc: Autodesk Architectural Desktop 2007 |Company: Autodesk,Inc. |WEB Address: www.autodesk.com
 90
    32897
280
     0
281
     0
  0
CLASS
  1
AEC_DISP_REP_ROOF_RCP
  2
AecDbDispRepRoofRcp
  3
AecArchBase50|Product Desc: Autodesk Architectural Desktop 2007 |Company: Autodesk,Inc. |WEB Address: www.autodesk.com
 90
    32897
280
     0
281
     0
  0
CLASS
  1
AEC_DISP_REP_SPACE_BOUNDARY_DIAGRAM
  2
AecDbDispRepSpaceBoundaryDgrm
  3
AecArchBase50|Product Desc: Autodesk Architectural Desktop 2007 |Company: Autodesk,Inc. |WEB Address: www.autodesk.com
 90
    32897
280
     0
281
     0
  0
CLASS
  1
AEC_DISP_REP_SPACE_RCP
  2
AecDbDispRepSpaceRcp
  3
AecArchBase50|Product Desc: Autodesk Architectural Desktop 2007 |Company: Autodesk,Inc. |WEB Address: www.autodesk.com
 90
    32897
280
     0
281
     0
  0
CLASS
  1
AEC_DISP_REP_SPACE_VOLUME
  2
AecDbDispRepSpaceVolume
  3
AecArchBase50|Product Desc: Autodesk Architectural Desktop 2007 |Company: Autodesk,Inc. |WEB Address: www.autodesk.com
 90
    32897
280
     0
281
     0
  0
CLASS
  1
AEC_DISP_REP_STAIR_PLAN_OVERLAPPING
  2
AecDbDispRepStairPlanOverlapping
  3
AecArchBase50|Product Desc: Autodesk Architectural Desktop 2007 |Company: Autodesk,Inc. |WEB Address: www.autodesk.com
 90
    32897
280
     0
281
     0
  0
CLASS
  1
AEC_DISP_PROPS_STAIR_PLAN_OVERLAPPING
  2
AecDbDispPropsStairPlanOverlapping
  3
AecArchBase50|Product Desc: Autodesk Architectural Desktop 2007 |Company: Autodesk,Inc. |WEB Address: www.autodesk.com
 90
    32897
280
     0
281
     0
  0
CLASS
  1
AEC_DISP_REP_STAIR_RCP
  2
AecDbDispRepStairRcp
  3
AecArchBase50|Product Desc: Autodesk Architectural Desktop 2007 |Company: Autodesk,Inc. |WEB Address: www.autodesk.com
 90
    32897
280
     0
281
     0
  0
CLASS
  1
AEC_DISP_REP_WALL_RCP
  2
AecDbDispRepWallRcp
  3
AecArchBase50|Product Desc: Autodesk Architectural Desktop 2007 |Company: Autodesk,Inc. |WEB Address: www.autodesk.com
 90
    32897
280
     0
281
     0
  0
CLASS
  1
AEC_DISP_REP_WINDOWASSEMBLY_SILL_PLAN
  2
AecDbDispRepWindowAssemblySillPlan
  3
AecArchBase50|Product Desc: Autodesk Architectural Desktop 2007 |Company: Autodesk,Inc. |WEB Address: www.autodesk.com
 90
    32897
280
     0
281
     0
  0
CLASS
  1
AEC_DISP_PROPS_WINDOW_ASSEMBLY_SILL_PLAN
  2
AecDbDispPropsWindowAssemblySillPlan
  3
AecArchBase50|Product Desc: Autodesk Architectural Desktop 2007 |Company: Autodesk,Inc. |WEB Address: www.autodesk.com
 90
    32897
280
     0
281
     0
  0
CLASS
  1
AEC_DISP_REP_WINDOW_ELEV
  2
AecDbDispRepWindowElev
  3
AecArchBase50|Product Desc: Autodesk Architectural Desktop 2007 |Company: Autodesk,Inc. |WEB Address: www.autodesk.com
 90
    32897
280
     0
281
     0
  0
CLASS
  1
AEC_DISP_REP_WINDOW_RCP
  2
AecDbDispRepWindowRcp
  3
AecArchBase50|Product Desc: Autodesk Architectural Desktop 2007 |Company: Autodesk,Inc. |WEB Address: www.autodesk.com
 90
    32897
280
     0
281
     0
  0
CLASS
  1
AEC_DISP_REP_WINDOW_SILL_PLAN
  2
AecDbDispRepWindowSillPlan
  3
AecArchBase50|Product Desc: Autodesk Architectural Desktop 2007 |Company: Autodesk,Inc. |WEB Address: www.autodesk.com
 90
    32897
280
     0
281
     0
  0
CLASS
  1
AEC_DISP_PROPS_WINDOW_SILL_PLAN
  2
AecDbDispPropsWindowSillPlan
  3
AecArchBase50|Product Desc: Autodesk Architectural Desktop 2007 |Company: Autodesk,Inc. |WEB Address: www.autodesk.com
 90
    32897
280
     0
281
     0
  0
CLASS
  1
AEC_DISP_REP_ANCHOR_BUB_TO_GRID_RCP
  2
AecDbDispRepAnchorBubToGridRcp
  3
AecStructureBase50|Product Desc: Autodesk Architectural Desktop 2007 |Company: Autodesk,Inc. |WEB Address: www.autodesk.com
 90
    32897
280
     0
281
     0
  0
CLASS
  1
AEC_DISP_REP_COLUMN_GRID_RCP
  2
AecDbDispRepColumnGridRcp
  3
AecStructureBase50|Product Desc: Autodesk Architectural Desktop 2007 |Company: Autodesk,Inc. |WEB Address: www.autodesk.com
 90
    32897
280
     0
281
     0
  0
CLASS
  1
AECS_DISP_REP_MEMBER_ELEVATION_DESIGN
  2
AecsDbDispRepMemberElevationDesign
  3
AecStructureBase50|Product Desc: Autodesk Architectural Desktop 2007 |Company: Autodesk,Inc. |WEB Address: www.autodesk.com
 90
    32897
280
     0
281
     0
  0
CLASS
  1
AECS_DISP_PROPS_MEMBER_PROJECTED
  2
AecsDbDispPropsMemberProjected
  3
AecStructureBase50|Product Desc: Autodesk Architectural Desktop 2007 |Company: Autodesk,Inc. |WEB Address: www.autodesk.com
 90
    32897
280
     0
281
     0
  0
CLASS
  1
AECS_DISP_REP_MEMBER_ELEVATION_DETAIL
  2
AecsDbDispRepMemberElevationDetail
  3
AecStructureBase50|Product Desc: Autodesk Architectural Desktop 2007 |Company: Autodesk,Inc. |WEB Address: www.autodesk.com
 90
    32897
280
     0
281
     0
  0
CLASS
  1
AECS_DISP_REP_MEMBER_MODEL_DETAIL
  2
AecsDbDispRepMemberModelDetail
  3
AecStructureBase50|Product Desc: Autodesk Architectural Desktop 2007 |Company: Autodesk,Inc. |WEB Address: www.autodesk.com
 90
    32897
280
     0
281
     0
  0
CLASS
  1
AECS_DISP_REP_MEMBER_PLAN_DETAIL
  2
AecsDbDispRepMemberPlanDetail
  3
AecStructureBase50|Product Desc: Autodesk Architectural Desktop 2007 |Company: Autodesk,Inc. |WEB Address: www.autodesk.com
 90
    32897
280
     0
281
     0
  0
CLASS
  1
AECS_DISP_REP_MEMBER_PLAN_SKETCH
  2
AecsDbDispRepMemberPlanSketch
  3
AecStructureBase50|Product Desc: Autodesk Architectural Desktop 2007 |Company: Autodesk,Inc. |WEB Address: www.autodesk.com
 90
    32897
280
     0
281
     0
  0
CLASS
  1
AECS_DISP_PROPS_MEMBER_PLAN_SKETCH
  2
AecsDbDispPropsMemberPlanSketch
  3
AecStructureBase50|Product Desc: Autodesk Architectural Desktop 2007 |Company: Autodesk,Inc. |WEB Address: www.autodesk.com
 90
    32897
280
     0
281
     0
  0
CLASS
  1
AEC_AECDBDISPREPAREA100
  2
AecDbDispRepArea100
  3
AecArchDACHBase50|Product Desc: Autodesk Architectural Desktop 2007 |Company: Autodesk,Inc. |WEB Address: www.autodesk.com
 90
    32897
280
     0
281
     0
  0
CLASS
  1
AEC_AECDBDISPREPAREAGROUP100
  2
AecDbDispRepAreaGroup100
  3
AecArchDACHBase50|Product Desc: Autodesk Architectural Desktop 2007 |Company: Autodesk,Inc. |WEB Address: www.autodesk.com
 90
    32897
280
     0
281
     0
  0
CLASS
  1
AEC_AECDBDISPREPBDGELEVLINEPLAN100
  2
AecDbDispRepBdgElevLinePlan100
  3
AecArchDACHBase50|Product Desc: Autodesk Architectural Desktop 2007 |Company: Autodesk,Inc. |WEB Address: www.autodesk.com
 90
    32897
280
     0
281
     0
  0
CLASS
  1
AEC_AECDBDISPREPBDGSECTIONLINEPLAN100
  2
AecDbDispRepBdgSectionLinePlan100
  3
AecArchDACHBase50|Product Desc: Autodesk Architectural Desktop 2007 |Company: Autodesk,Inc. |WEB Address: www.autodesk.com
 90
    32897
280
     0
281
     0
  0
CLASS
  1
AEC_AECDBDISPREPCEILINGGRIDPLAN100
  2
AecDbDispRepCeilingGridPlan100
  3
AecArchDACHBase50|Product Desc: Autodesk Architectural Desktop 2007 |Company: Autodesk,Inc. |WEB Address: www.autodesk.com
 90
    32897
280
     0
281
     0
  0
CLASS
  1
AEC_AECDBDISPREPCOLUMNGRIDPLAN100
  2
AecDbDispRepColumnGridPlan100
  3
AecArchDACHBase50|Product Desc: Autodesk Architectural Desktop 2007 |Company: Autodesk,Inc. |WEB Address: www.autodesk.com
 90
    32897
280
     0
281
     0
  0
CLASS
  1
AEC_AECDBDISPREPCURTAINWALLLAYOUTPLAN100
  2
AecDbDispRepCurtainWallLayoutPlan100
  3
AecArchDACHBase50|Product Desc: Autodesk Architectural Desktop 2007 |Company: Autodesk,Inc. |WEB Address: www.autodesk.com
 90
    32897
280
     0
281
     0
  0
CLASS
  1
AEC_AECDBDISPREPCURTAINWALLUNITPLAN100
  2
AecDbDispRepCurtainWallUnitPlan100
  3
AecArchDACHBase50|Product Desc: Autodesk Architectural Desktop 2007 |Company: Autodesk,Inc. |WEB Address: www.autodesk.com
 90
    32897
280
     0
281
     0
  0
CLASS
  1
AEC_AECDBDISPREPMVBLOCKREFPLAN100
  2
AecDbDispRepMvBlockRefPlan100
  3
AecArchDACHBase50|Product Desc: Autodesk Architectural Desktop 2007 |Company: Autodesk,Inc. |WEB Address: www.autodesk.com
 90
    32897
280
     0
281
     0
  0
CLASS
  1
AEC_AECDBDISPREPROOFPLAN100
  2
AecDbDispRepRoofPlan100
  3
AecArchDACHBase50|Product Desc: Autodesk Architectural Desktop 2007 |Company: Autodesk,Inc. |WEB Address: www.autodesk.com
 90
    32897
280
     0
281
     0
  0
CLASS
  1
AEC_AECDBDISPREPROOFSLABPLAN100
  2
AecDbDispRepRoofSlabPlan100
  3
AecArchDACHBase50|Product Desc: Autodesk Architectural Desktop 2007 |Company: Autodesk,Inc. |WEB Address: www.autodesk.com
 90
    32897
280
     0
281
     0
  0
CLASS
  1
AEC_AECDBDISPREPSLABPLAN100
  2
AecDbDispRepSlabPlan100
  3
AecArchDACHBase50|Product Desc: Autodesk Architectural Desktop 2007 |Company: Autodesk,Inc. |WEB Address: www.autodesk.com
 90
    32897
280
     0
281
     0
  0
CLASS
  1
AEC_AECDBDISPREPSPACEBOUNDARYPLAN100
  2
AecDbDispRepSpaceBoundaryPlan100
  3
AecArchDACHBase50|Product Desc: Autodesk Architectural Desktop 2007 |Company: Autodesk,Inc. |WEB Address: www.autodesk.com
 90
    32897
280
     0
281
     0
  0
CLASS
  1
AEC_AECDBDISPREPSPACEPLAN100
  2
AecDbDispRepSpacePlan100
  3
AecArchDACHBase50|Product Desc: Autodesk Architectural Desktop 2007 |Company: Autodesk,Inc. |WEB Address: www.autodesk.com
 90
    32897
280
     0
281
     0
  0
CLASS
  1
AEC_AECDBDISPREPWALLPLAN100
  2
AecDbDispRepWallPlan100
  3
AecArchDACHBase50|Product Desc: Autodesk Architectural Desktop 2007 |Company: Autodesk,Inc. |WEB Address: www.autodesk.com
 90
    32897
280
     0
281
     0
  0
CLASS
  1
AEC_AECDBDISPREPAREA50
  2
AecDbDispRepArea50
  3
AecArchDACHBase50|Product Desc: Autodesk Architectural Desktop 2007 |Company: Autodesk,Inc. |WEB Address: www.autodesk.com
 90
    32897
280
     0
281
     0
  0
CLASS
  1
AEC_AECDBDISPREPAREAGROUP50
  2
AecDbDispRepAreaGroup50
  3
AecArchDACHBase50|Product Desc: Autodesk Architectural Desktop 2007 |Company: Autodesk,Inc. |WEB Address: www.autodesk.com
 90
    32897
280
     0
281
     0
  0
CLASS
  1
AEC_AECDBDISPREPBDGELEVLINEPLAN50
  2
AecDbDispRepBdgElevLinePlan50
  3
AecArchDACHBase50|Product Desc: Autodesk Architectural Desktop 2007 |Company: Autodesk,Inc. |WEB Address: www.autodesk.com
 90
    32897
280
     0
281
     0
  0
CLASS
  1
AEC_AECDBDISPREPBDGSECTIONLINEPLAN50
  2
AecDbDispRepBdgSectionLinePlan50
  3
AecArchDACHBase50|Product Desc: Autodesk Architectural Desktop 2007 |Company: Autodesk,Inc. |WEB Address: www.autodesk.com
 90
    32897
280
     0
281
     0
  0
CLASS
  1
AEC_AECDBDISPREPCEILINGGRIDPLAN50
  2
AecDbDispRepCeilingGridPlan50
  3
AecArchDACHBase50|Product Desc: Autodesk Architectural Desktop 2007 |Company: Autodesk,Inc. |WEB Address: www.autodesk.com
 90
    32897
280
     0
281
     0
  0
CLASS
  1
AEC_AECDBDISPREPCOLUMNGRIDPLAN50
  2
AecDbDispRepColumnGridPlan50
  3
AecArchDACHBase50|Product Desc: Autodesk Architectural Desktop 2007 |Company: Autodesk,Inc. |WEB Address: www.autodesk.com
 90
    32897
280
     0
281
     0
  0
CLASS
  1
AEC_AECDBDISPREPCURTAINWALLLAYOUTPLAN50
  2
AecDbDispRepCurtainWallLayoutPlan50
  3
AecArchDACHBase50|Product Desc: Autodesk Architectural Desktop 2007 |Company: Autodesk,Inc. |WEB Address: www.autodesk.com
 90
    32897
280
     0
281
     0
  0
CLASS
  1
AEC_AECDBDISPREPCURTAINWALLUNITPLAN50
  2
AecDbDispRepCurtainWallUnitPlan50
  3
AecArchDACHBase50|Product Desc: Autodesk Architectural Desktop 2007 |Company: Autodesk,Inc. |WEB Address: www.autodesk.com
 90
    32897
280
     0
281
     0
  0
CLASS
  1
AEC_AECDBDISPREPMVBLOCKREFPLAN50
  2
AecDbDispRepMvBlockRefPlan50
  3
AecArchDACHBase50|Product Desc: Autodesk Architectural Desktop 2007 |Company: Autodesk,Inc. |WEB Address: www.autodesk.com
 90
    32897
280
     0
281
     0
  0
CLASS
  1
AEC_AECDBDISPREPROOFPLAN50
  2
AecDbDispRepRoofPlan50
  3
AecArchDACHBase50|Product Desc: Autodesk Architectural Desktop 2007 |Company: Autodesk,Inc. |WEB Address: www.autodesk.com
 90
    32897
280
     0
281
     0
  0
CLASS
  1
AEC_AECDBDISPREPROOFSLABPLAN50
  2
AecDbDispRepRoofSlabPlan50
  3
AecArchDACHBase50|Product Desc: Autodesk Architectural Desktop 2007 |Company: Autodesk,Inc. |WEB Address: www.autodesk.com
 90
    32897
280
     0
281
     0
  0
CLASS
  1
AEC_AECDBDISPREPSLABPLAN50
  2
AecDbDispRepSlabPlan50
  3
AecArchDACHBase50|Product Desc: Autodesk Architectural Desktop 2007 |Company: Autodesk,Inc. |WEB Address: www.autodesk.com
 90
    32897
280
     0
281
     0
  0
CLASS
  1
AEC_AECDBDISPREPSPACEBOUNDARYPLAN50
  2
AecDbDispRepSpaceBoundaryPlan50
  3
AecArchDACHBase50|Product Desc: Autodesk Architectural Desktop 2007 |Company: Autodesk,Inc. |WEB Address: www.autodesk.com
 90
    32897
280
     0
281
     0
  0
CLASS
  1
AEC_AECDBDISPREPSPACEPLAN50
  2
AecDbDispRepSpacePlan50
  3
AecArchDACHBase50|Product Desc: Autodesk Architectural Desktop 2007 |Company: Autodesk,Inc. |WEB Address: www.autodesk.com
 90
    32897
280
     0
281
     0
  0
CLASS
  1
AEC_AECDBDISPREPWALLPLAN50
  2
AecDbDispRepWallPlan50
  3
AecArchDACHBase50|Product Desc: Autodesk Architectural Desktop 2007 |Company: Autodesk,Inc. |WEB Address: www.autodesk.com
 90
    32897
280
     0
281
     0
  0
CLASS
  1
AEC_AECDBDISPREPWINDOWASSEMBLYPLAN50
  2
AecDbDispRepWindowAssemblyPlan50
  3
AecArchDACHBase50|Product Desc: Autodesk Architectural Desktop 2007 |Company: Autodesk,Inc. |WEB Address: www.autodesk.com
 90
    32897
280
     0
281
     0
  0
CLASS
  1
AEC_DB_DISP_REP_DIM_GROUP_PLAN100
  2
AecDbDispRepDimGroupPlan100
  3
AecArchDACHBase50|Product Desc: Autodesk Architectural Desktop 2007 |Company: Autodesk,Inc. |WEB Address: www.autodesk.com
 90
    32897
280
     0
281
     0
  0
CLASS
  1
AEC_DB_DISP_REP_DIM_GROUP_PLAN50
  2
AecDbDispRepDimGroupPlan50
  3
AecArchDACHBase50|Product Desc: Autodesk Architectural Desktop 2007 |Company: Autodesk,Inc. |WEB Address: www.autodesk.com
 90
    32897
280
     0
281
     0
  0
CLASS
  1
AEC_DISP_REP_DOOR_PLAN_50
  2
AecDbDispRepDoorPlan50
  3
AecArchDACHBase50|Product Desc: Autodesk Architectural Desktop 2007 |Company: Autodesk,Inc. |WEB Address: www.autodesk.com
 90
    32897
280
     0
281
     0
  0
CLASS
  1
AEC_DISP_PROPS_DOOR_PLAN_50
  2
AecDbDispPropsDoorPlan50
  3
AecArchDACHBase50|Product Desc: Autodesk Architectural Desktop 2007 |Company: Autodesk,Inc. |WEB Address: www.autodesk.com
 90
    32897
280
     0
281
     0
  0
CLASS
  1
AEC_DISP_REP_DOOR_PLAN_HEKTO
  2
AecDbDispRepDoorPlanHekto
  3
AecArchDACHBase50|Product Desc: Autodesk Architectural Desktop 2007 |Company: Autodesk,Inc. |WEB Address: www.autodesk.com
 90
    32897
280
     0
281
     0
  0
CLASS
  1
AEC_DISP_PROPS_DOOR_PLAN_100
  2
AecDbDispPropsDoorPlan100
  3
AecArchDACHBase50|Product Desc: Autodesk Architectural Desktop 2007 |Company: Autodesk,Inc. |WEB Address: www.autodesk.com
 90
    32897
280
     0
281
     0
  0
CLASS
  1
AEC_DISP_REP_DOOR_THRESHOLD_SYMBOL_PLAN
  2
AecDbDispRepDoorThresholdSymbolPlan
  3
AecArchDACHBase50|Product Desc: Autodesk Architectural Desktop 2007 |Company: Autodesk,Inc. |WEB Address: www.autodesk.com
 90
    32897
280
     0
281
     0
  0
CLASS
  1
AEC_DISP_PROPS_DOOR_THRESHOLD_SYMBOL_PLAN
  2
AecDbDispPropsDoorThresholdSymbolPlan
  3
AecArchDACHBase50|Product Desc: Autodesk Architectural Desktop 2007 |Company: Autodesk,Inc. |WEB Address: www.autodesk.com
 90
    32897
280
     0
281
     0
  0
CLASS
  1
AEC_DISPREPAECDBDISPREPMASSELEMPLAN100
  2
AecDbDispRepMassElemPlan100
  3
AecArchDACHBase50|Product Desc: Autodesk Architectural Desktop 2007 |Company: Autodesk,Inc. |WEB Address: www.autodesk.com
 90
    32897
280
     0
281
     0
  0
CLASS
  1
AEC_DISPROPSMASSELEMPLANCOMMON
  2
AecDbDispPropsMassElemPlanCommon
  3
AecArchDACHBase50|Product Desc: Autodesk Architectural Desktop 2007 |Company: Autodesk,Inc. |WEB Address: www.autodesk.com
 90
    32897
280
     0
281
     0
  0
CLASS
  1
AEC_DISPREPAECDBDISPREPMASSELEMPLAN50
  2
AecDbDispRepMassElemPlan50
  3
AecArchDACHBase50|Product Desc: Autodesk Architectural Desktop 2007 |Company: Autodesk,Inc. |WEB Address: www.autodesk.com
 90
    32897
280
     0
281
     0
  0
CLASS
  1
AEC_DISPREPAECDBDISPREPMASSGROUPPLAN100
  2
AecDbDispRepMassGroupPlan100
  3
AecArchDACHBase50|Product Desc: Autodesk Architectural Desktop 2007 |Company: Autodesk,Inc. |WEB Address: www.autodesk.com
 90
    32897
280
     0
281
     0
  0
CLASS
  1
AEC_DISPROPSMASSGROUPPLANCOMMON
  2
AecDbDispPropsMassGroupPlanCommon
  3
AecArchDACHBase50|Product Desc: Autodesk Architectural Desktop 2007 |Company: Autodesk,Inc. |WEB Address: www.autodesk.com
 90
    32897
280
     0
281
     0
  0
CLASS
  1
AEC_DISPREPAECDBDISPREPMASSGROUPPLAN50
  2
AecDbDispRepMassGroupPlan50
  3
AecArchDACHBase50|Product Desc: Autodesk Architectural Desktop 2007 |Company: Autodesk,Inc. |WEB Address: www.autodesk.com
 90
    32897
280
     0
281
     0
  0
CLASS
  1
AEC_DISPREPAECDBDISPREPOPENINGPLAN100
  2
AecDbDispRepOpeningPlan100
  3
AecArchDACHBase50|Product Desc: Autodesk Architectural Desktop 2007 |Company: Autodesk,Inc. |WEB Address: www.autodesk.com
 90
    32897
280
     0
281
     0
  0
CLASS
  1
AEC_DISPROPSOPENINGPLANCOMMONHATCHED
  2
AecDbDispPropsOpeningPlanCommonHatched
  3
AecArchDACHBase50|Product Desc: Autodesk Architectural Desktop 2007 |Company: Autodesk,Inc. |WEB Address: www.autodesk.com
 90
    32897
280
     0
281
     0
  0
CLASS
  1
AEC_DISPREPAECDBDISPREPOPENINGPLAN50
  2
AecDbDispRepOpeningPlan50
  3
AecArchDACHBase50|Product Desc: Autodesk Architectural Desktop 2007 |Company: Autodesk,Inc. |WEB Address: www.autodesk.com
 90
    32897
280
     0
281
     0
  0
CLASS
  1
AEC_DISPREPAECDBDISPREPOPENINGPLANREFLECTED
  2
AecDbDispRepOpeningPlanReflected
  3
AecArchDACHBase50|Product Desc: Autodesk Architectural Desktop 2007 |Company: Autodesk,Inc. |WEB Address: www.autodesk.com
 90
    32897
280
     0
281
     0
  0
CLASS
  1
AEC_DISPROPSOPENINGPLANCOMMON
  2
AecDbDispPropsOpeningPlanCommon
  3
AecArchDACHBase50|Product Desc: Autodesk Architectural Desktop 2007 |Company: Autodesk,Inc. |WEB Address: www.autodesk.com
 90
    32897
280
     0
281
     0
  0
CLASS
  1
AEC_DISPREPAECDBDISPREPOPENINGSILLPLAN
  2
AecDbDispRepOpeningSillPlan
  3
AecArchDACHBase50|Product Desc: Autodesk Architectural Desktop 2007 |Company: Autodesk,Inc. |WEB Address: www.autodesk.com
 90
    32897
280
     0
281
     0
  0
CLASS
  1
AEC_DISPROPSOPENINGSILLPLAN
  2
AecDbDispPropsOpeningSillPlan
  3
AecArchDACHBase50|Product Desc: Autodesk Architectural Desktop 2007 |Company: Autodesk,Inc. |WEB Address: www.autodesk.com
 90
    32897
280
     0
281
     0
  0
CLASS
  1
AEC_DISP_REP_RAILING_PLAN_100
  2
AecDbDispRepRailingPlan100
  3
AecArchDACHBase50|Product Desc: Autodesk Architectural Desktop 2007 |Company: Autodesk,Inc. |WEB Address: www.autodesk.com
 90
    32897
280
     0
281
     0
  0
CLASS
  1
AEC_DISP_ROPS_RAILING_PLAN_100
  2
AecDbDispPropsRailingPlan100
  3
AecArchDACHBase50|Product Desc: Autodesk Architectural Desktop 2007 |Company: Autodesk,Inc. |WEB Address: www.autodesk.com
 90
    32897
280
     0
281
     0
  0
CLASS
  1
AEC_DISP_REP_RAILING_PLAN_50
  2
AecDbDispRepRailingPlan50
  3
AecArchDACHBase50|Product Desc: Autodesk Architectural Desktop 2007 |Company: Autodesk,Inc. |WEB Address: www.autodesk.com
 90
    32897
280
     0
281
     0
  0
CLASS
  1
AEC_DISP_ROPS_RAILING_PLAN_50
  2
AecDbDispPropsRailingPlan50
  3
AecArchDACHBase50|Product Desc: Autodesk Architectural Desktop 2007 |Company: Autodesk,Inc. |WEB Address: www.autodesk.com
 90
    32897
280
     0
281
     0
  0
CLASS
  1
AEC_DISP_REP_STAIR_PLAN_100
  2
AecDbDispRepStairPlan100
  3
AecArchDACHBase50|Product Desc: Autodesk Architectural Desktop 2007 |Company: Autodesk,Inc. |WEB Address: www.autodesk.com
 90
    32897
280
     0
281
     0
  0
CLASS
  1
AEC_DISP_ROPS_STAIR_PLAN_100
  2
AecDbDispPropsStairPlan100
  3
AecArchDACHBase50|Product Desc: Autodesk Architectural Desktop 2007 |Company: Autodesk,Inc. |WEB Address: www.autodesk.com
 90
    32897
280
     0
281
     0
  0
CLASS
  1
AEC_DISP_REP_STAIR_PLAN_50
  2
AecDbDispRepStairPlan50
  3
AecArchDACHBase50|Product Desc: Autodesk Architectural Desktop 2007 |Company: Autodesk,Inc. |WEB Address: www.autodesk.com
 90
    32897
280
     0
281
     0
  0
CLASS
  1
AEC_DISP_ROPS_STAIR_PLAN_50
  2
AecDbDispPropsStairPlan50
  3
AecArchDACHBase50|Product Desc: Autodesk Architectural Desktop 2007 |Company: Autodesk,Inc. |WEB Address: www.autodesk.com
 90
    32897
280
     0
281
     0
  0
CLASS
  1
AEC_DISP_REP_WINDOW_PLAN_100
  2
AecDbDispRepWindowPlan100
  3
AecArchDACHBase50|Product Desc: Autodesk Architectural Desktop 2007 |Company: Autodesk,Inc. |WEB Address: www.autodesk.com
 90
    32897
280
     0
281
     0
  0
CLASS
  1
AEC_DISP_PROPS_WINDOW_PLAN_100
  2
AecDbDispPropsWindowPlan100
  3
AecArchDACHBase50|Product Desc: Autodesk Architectural Desktop 2007 |Company: Autodesk,Inc. |WEB Address: www.autodesk.com
 90
    32897
280
     0
281
     0
  0
CLASS
  1
AEC_DISP_REP_WINDOW_PLAN_50
  2
AecDbDispRepWindowPlan50
  3
AecArchDACHBase50|Product Desc: Autodesk Architectural Desktop 2007 |Company: Autodesk,Inc. |WEB Address: www.autodesk.com
 90
    32897
280
     0
281
     0
  0
CLASS
  1
AEC_DISP_PROPS_WINDOW_PLAN_50
  2
AecDbDispPropsWindowPlan50
  3
AecArchDACHBase50|Product Desc: Autodesk Architectural Desktop 2007 |Company: Autodesk,Inc. |WEB Address: www.autodesk.com
 90
    32897
280
     0
281
     0
  0
CLASS
  1
BINRECORD
  2
AcAecBinRecord
  3
AecBase50|Product Desc: Autodesk Architectural Desktop 2007 |Company: Autodesk,Inc. |WEB Address: www.autodesk.com
 90
    32897
280
     0
281
     0
  0
CLASS
  1
SPATIAL_FILTER
  2
AcDbSpatialFilter
  3
ObjectDBX Classes
 90
    32768
280
     0
281
     0
  0
CLASS
  1
AEC_VARS_STRUCTUREBASE
  2
AecsDbVarsStructureBase
  3
AecStructureBase50|Product Desc: Autodesk Architectural Desktop 2007 |Company: Autodesk,Inc. |WEB Address: www.autodesk.com
 90
    32897
280
     0
281
     0
  0
CLASS
  1
DIMASSOC
  2
AcDbDimAssoc
  3
"AcDbDimAssoc|Product Desc:     AcDim ARX App For Dimension|Company:          Autodesk, Inc.|WEB Address:      www.autodesk.com"
 90
    32768
280
     0
281
     0
  0
CLASS
  1
TABLESTYLE
  2
AcDbTableStyle
  3
ObjectDBX Classes
 90
     4095
280
     0
281
     0
  0
CLASS
  1
MATERIAL
  2
AcDbMaterial
  3
ObjectDBX Classes
 90
     1153
280
     0
281
     0
  0
CLASS
  1
VISUALSTYLE
  2
AcDbVisualStyle
  3
ObjectDBX Classes
 90
     4095
280
     0
281
     0
  0
CLASS
  1
EXACXREFPANELOBJECT
  2
ExAcXREFPanelObject
  3
EXAC_ESW
 90
    33793
280
     0
281
     0
  0
CLASS
  1
NPOCOLLECTION
  2
AcDbImpNonPersistentObjectsCollection
  3
ObjectDBX Classes
 90
    33921
280
     0
281
     0
  0
CLASS
  1
AEC_AECDBDISPREPZONE100
  2
AecDbDispRepZonePlan100
  3
AecArchDACHBase50|Product Desc: Autodesk Architectural Desktop 2007 |Company: Autodesk,Inc. |WEB Address: www.autodesk.com
 90
    32897
280
     0
281
     0
  0
CLASS
  1
AEC_DISP_PROPS_ZONE
  2
AecDbDispPropsZone
  3
AecArchBase50|Product Desc: Autodesk Architectural Desktop 2007 |Company: Autodesk,Inc. |WEB Address: www.autodesk.com
 90
    32897
280
     0
281
     0
  0
CLASS
  1
AEC_AECDBDISPREPZONE50
  2
AecDbDispRepZonePlan50
  3
AecArchDACHBase50|Product Desc: Autodesk Architectural Desktop 2007 |Company: Autodesk,Inc. |WEB Address: www.autodesk.com
 90
    32897
280
     0
281
     0
  0
CLASS
  1
AEC_DISP_REP_DISPLAYTHEME
  2
AecDbDispRepDisplayTheme
  3
AecBase50|Product Desc: Autodesk Architectural Desktop 2007 |Company: Autodesk,Inc. |WEB Address: www.autodesk.com
 90
    32897
280
     0
281
     0
  0
CLASS
  1
AEC_DISP_PROPS_DISPLAYTHEME
  2
AecDbDispPropsDisplayTheme
  3
AecBase50|Product Desc: Autodesk Architectural Desktop 2007 |Company: Autodesk,Inc. |WEB Address: www.autodesk.com
 90
    32897
280
     0
281
     0
  0
CLASS
  1
AEC_DISP_REP_ANCHOR_EXT_TAG_TO_ENT
  2
AecDbDispRepAnchorExtendedTagToEnt
  3
AecScheduleData50|Product Desc: Autodesk Architectural Desktop 2007 |Company: Autodesk,Inc. |WEB Address: www.autodesk.com
 90
    32897
280
     0
281
     0
  0
CLASS
  1
AEC_DISP_REP_SPACE_DECOMPOSED
  2
AecDbDispRepSpaceDecomposed
  3
AecArchBase50|Product Desc: Autodesk Architectural Desktop 2007 |Company: Autodesk,Inc. |WEB Address: www.autodesk.com
 90
    32897
280
     0
281
     0
  0
CLASS
  1
AEC_DISP_PROPS_SPACE_DECOMPOSED
  2
AecDbDispPropsSpaceDecomposed
  3
AecArchBase50|Product Desc: Autodesk Architectural Desktop 2007 |Company: Autodesk,Inc. |WEB Address: www.autodesk.com
 90
    32897
280
     0
281
     0
  0
CLASS
  1
AEC_DISP_REP_ZONE
  2
AecDbDispRepZone
  3
AecArchBase50|Product Desc: Autodesk Architectural Desktop 2007 |Company: Autodesk,Inc. |WEB Address: www.autodesk.com
 90
    32897
280
     0
281
     0
  0
CLASS
  1
ACAD_EVALUATION_GRAPH
  2
AcDbEvalGraph
  3
ObjectDBX Classes
 90
    33921
280
     0
281
     0
  0
CLASS
  1
BLOCKFLIPPARAMETER
  2
AcDbBlockFlipParameter
  3
ObjectDBX Classes
 90
    33921
280
     0
281
     0
  0
CLASS
  1
BLOCKFLIPGRIP
  2
AcDbBlockFlipGrip
  3
ObjectDBX Classes
 90
    33921
280
     0
281
     0
  0
CLASS
  1
BLOCKGRIPLOCATIONCOMPONENT
  2
AcDbBlockGripExpr
  3
ObjectDBX Classes
 90
    33921
280
     0
281
     0
  0
CLASS
  1
BLOCKFLIPACTION
  2
AcDbBlockFlipAction
  3
ObjectDBX Classes
 90
    33921
280
     0
281
     0
  0
CLASS
  1
BLOCKROTATIONPARAMETER
  2
AcDbBlockRotationParameter
  3
ObjectDBX Classes
 90
    33921
280
     0
281
     0
  0
CLASS
  1
BLOCKROTATIONGRIP
  2
AcDbBlockRotationGrip
  3
ObjectDBX Classes
 90
    33921
280
     0
281
     0
  0
CLASS
  1
BLOCKROTATEACTION
  2
AcDbBlockRotateAction
  3
ObjectDBX Classes
 90
    33921
280
     0
281
     0
  0
CLASS
  1
BLOCKBASEPOINTPARAMETER
  2
AcDbBlockBasepointParameter
  3
ObjectDBX Classes
 90
    33921
280
     0
281
     0
  0
CLASS
  1
ACDB_DYNAMICBLOCKPURGEPREVENTER_VERSION
  2
AcDbDynamicBlockPurgePreventer
  3
ObjectDBX Classes
 90
    33921
280
     0
281
     0
  0
CLASS
  1
ACDB_BLOCKREPRESENTATION_DATA
  2
AcDbBlockRepresentationData
  3
ObjectDBX Classes
 90
    33921
280
     0
281
     0
  0
CLASS
  1
BLOCKVISIBILITYPARAMETER
  2
AcDbBlockVisibilityParameter
  3
ObjectDBX Classes
 90
    33921
280
     0
281
     0
  0
CLASS
  1
BLOCKVISIBILITYGRIP
  2
AcDbBlockVisibilityGrip
  3
ObjectDBX Classes
 90
    33921
280
     0
281
     0
  0
CLASS
  1
BLOCKLINEARPARAMETER
  2
AcDbBlockLinearParameter
  3
ObjectDBX Classes
 90
    33921
280
     0
281
     0
  0
CLASS
  1
BLOCKSTRETCHACTION
  2
AcDbBlockStretchAction
  3
ObjectDBX Classes
 90
    33921
280
     0
281
     0
  0
CLASS
  1
BLOCKLOOKUPPARAMETER
  2
AcDbBlockLookupParameter
  3
ObjectDBX Classes
 90
    33921
280
     0
281
     0
  0
CLASS
  1
BLOCKLOOKUPGRIP
  2
AcDbBlockLookupGrip
  3
ObjectDBX Classes
 90
    33921
280
     0
281
     0
  0
CLASS
  1
BLOCKLOOKUPACTION
  2
AcDbBlockLookupAction
  3
ObjectDBX Classes
 90
    33921
280
     0
281
     0
  0
CLASS
  1
BLOCKMOVEACTION
  2
AcDbBlockMoveAction
  3
ObjectDBX Classes
 90
    33921
280
     0
281
     0
  0
CLASS
  1
BLOCKLINEARGRIP
  2
AcDbBlockLinearGrip
  3
ObjectDBX Classes
 90
    33921
280
     0
281
     0
  0
CLASS
  1
OBJECT_PTR
  2
CAseDLPNTableRecord
  3
ASE-LPNTableRecord
 90
        1
280
     0
281
     0
  0
CLASS
  1
SCALE
  2
AcDbScale
  3
ObjectDBX Classes
 90
     1153
280
     0
281
     0
  0
CLASS
  1
MLEADERSTYLE
  2
AcDbMLeaderStyle
  3
ACDB_MLEADERSTYLE_CLASS
 90
    36863
280
     0
281
     0
  0
CLASS
  1
AEC_SPACE
  2
AecDbSpace
  3
AecArchBase50|Product Desc: Autodesk Architectural Desktop 2007 |Company: Autodesk,Inc. |WEB Address: www.autodesk.com
 90
    33661
280
     0
281
     1
  0
CLASS
  1
AecDbPropertySet
  2
AecDbPropertySet
  3
AecScheduleData50|Product Desc: Autodesk Architectural Desktop 2007 |Company: Autodesk,Inc. |WEB Address: www.autodesk.com
 90
    32897
280
     0
281
     0
  0
CLASS
  1
AEC_MVBLOCK_REF
  2
AecDbMvBlockRef
  3
AecBase50|Product Desc: Autodesk Architectural Desktop 2007 |Company: Autodesk,Inc. |WEB Address: www.autodesk.com
 90
    33661
280
     0
281
     1
  0
CLASS
  1
AEC_ANCHOR_TAG_TO_ENT
  2
AecDbAnchorTagToEnt
  3
AecScheduleData50|Product Desc: Autodesk Architectural Desktop 2007 |Company: Autodesk,Inc. |WEB Address: www.autodesk.com
 90
    32897
280
     0
281
     0
  0
CLASS
  1
AEC_CLEANUP_GROUP_DEF
  2
AecDbCleanupGroupDef
  3
AecArchBase50|Product Desc: Autodesk Architectural Desktop 2007 |Company: Autodesk,Inc. |WEB Address: www.autodesk.com
 90
    32897
280
     0
281
     0
  0
CLASS
  1
AEC_ENDCAP_STYLE
  2
AecDbEndcapStyle
  3
AecArchBase50|Product Desc: Autodesk Architectural Desktop 2007 |Company: Autodesk,Inc. |WEB Address: www.autodesk.com
 90
    32897
280
     0
281
     0
  0
CLASS
  1
AEC_LIST_DEF
  2
AecDbListDefinition
  3
AecBase50|Product Desc: Autodesk Architectural Desktop 2007 |Company: Autodesk,Inc. |WEB Address: www.autodesk.com
 90
    32897
280
     0
281
     0
  0
CLASS
  1
AEC_LIST_DEF
  2
AecDbListItem
  3
AecBase50|Product Desc: Autodesk Architectural Desktop 2007 |Company: Autodesk,Inc. |WEB Address: www.autodesk.com
 90
    32897
280
     0
281
     0
  0
CLASS
  1
AEC_MATERIAL_DEF
  2
AecDbMaterialDef
  3
AecBase50|Product Desc: Autodesk Architectural Desktop 2007 |Company: Autodesk,Inc. |WEB Address: www.autodesk.com
 90
    32897
280
     0
281
     0
  0
CLASS
  1
AEC_MVBLOCK_DEF
  2
AecDbMvBlockDef
  3
AecBase50|Product Desc: Autodesk Architectural Desktop 2007 |Company: Autodesk,Inc. |WEB Address: www.autodesk.com
 90
    32897
280
     0
281
     0
  0
CLASS
  1
AEC_FRAME_DEF
  2
AecDbOpeningEndcapStyle
  3
AecArchBase50|Product Desc: Autodesk Architectural Desktop 2007 |Company: Autodesk,Inc. |WEB Address: www.autodesk.com
 90
    32897
280
     0
281
     0
  0
CLASS
  1
AEC_SCHEDULE_DATA_FORMAT
  2
AecDbScheduleDataFormat
  3
AecScheduleData50|Product Desc: Autodesk Architectural Desktop 2007 |Company: Autodesk,Inc. |WEB Address: www.autodesk.com
 90
    32897
280
     0
281
     0
  0
CLASS
  1
AEC_PROPERTY_SET_DEF
  2
AecDbPropertySetDef
  3
AecScheduleData50|Product Desc: Autodesk Architectural Desktop 2007 |Company: Autodesk,Inc. |WEB Address: www.autodesk.com
 90
    32897
280
     0
281
     0
  0
CLASS
  1
AEC_ROOFSLAB_STYLE
  2
AecDbRoofSlabStyle
  3
AecArchBase50|Product Desc: Autodesk Architectural Desktop 2007 |Company: Autodesk,Inc. |WEB Address: www.autodesk.com
 90
    32897
280
     0
281
     0
  0
CLASS
  1
AEC_ROOFSLABEDGE_STYLE
  2
AecDbRoofSlabEdgeStyle
  3
AecArchBase50|Product Desc: Autodesk Architectural Desktop 2007 |Company: Autodesk,Inc. |WEB Address: www.autodesk.com
 90
    32897
280
     0
281
     0
  0
CLASS
  1
AEC_SLAB_STYLE
  2
AecDbSlabStyle
  3
AecArchBase50|Product Desc: Autodesk Architectural Desktop 2007 |Company: Autodesk,Inc. |WEB Address: www.autodesk.com
 90
    32897
280
     0
281
     0
  0
CLASS
  1
AEC_SLABEDGE_STYLE
  2
AecDbSlabEdgeStyle
  3
AecArchBase50|Product Desc: Autodesk Architectural Desktop 2007 |Company: Autodesk,Inc. |WEB Address: www.autodesk.com
 90
    32897
280
     0
281
     0
  0
CLASS
  1
AEC_SPACE_STYLES
  2
AecDbSpaceStyle
  3
AecArchBase50|Product Desc: Autodesk Architectural Desktop 2007 |Company: Autodesk,Inc. |WEB Address: www.autodesk.com
 90
    32897
280
     0
281
     0
  0
CLASS
  1
AEC_WALL_STYLE
  2
AecDbWallStyle
  3
AecArchBase50|Product Desc: Autodesk Architectural Desktop 2007 |Company: Autodesk,Inc. |WEB Address: www.autodesk.com
 90
    32897
280
     0
281
     0
  0
CLASS
  1
AEC_REFEDIT_STATUS_TRACKER
  2
AecDbRefEditStatusTracker
  3
AecArchBase50|Product Desc: Autodesk Architectural Desktop 2007 |Company: Autodesk,Inc. |WEB Address: www.autodesk.com
 90
    32897
280
     0
281
     0
  0
CLASS
  1
CELLSTYLEMAP
  2
AcDbCellStyleMap
  3
ObjectDBX Classes
 90
     1152
280
     0
281
     0
  0
ENDSEC
  0
SECTION
  2
TABLES
  0
TABLE
  2
VPORT
  5
246
330
0
100
AcDbSymbolTable
 70
     1
  0
VPORT
  5
247
330
246
100
AcDbSymbolTableRecord
100
AcDbViewportTableRecord
  2
*Active
 70
     0
 10
0.0
 20
0.0
 11
1.0
 21
1.0
 12
221212.7415811679
 22
134185.8596444806
 13
0.0
 23
0.0
 14
10.0
 24
10.0
 15
10.0
 25
10.0
 16
0.0
 26
0.0
 36
1.0
 17
0.0
 27
0.0
 37
0.0
 40
20008.00311673628
 41
2.257412398921832
 42
50.0
 43
0.0
 44
0.0
 50
0.0
 51
0.0
 71
     0
 72
  1000
 73
     1
 74
     1
 75
     0
 76
     0
 77
     0
 78
     0
281
     0
 65
     1
110
0.0
120
0.0
130
0.0
111
1.0
121
0.0
131
0.0
112
0.0
122
1.0
132
0.0
 79
     0
146
0.0
  0
ENDTAB
  0
TABLE
  2
LTYPE
  5
241
330
0
100
AcDbSymbolTable
 70
     2
  0
LTYPE
  5
242
330
241
100
AcDbSymbolTableRecord
100
AcDbLinetypeTableRecord
  2
ByBlock
 70
     0
  3

 72
    65
 73
     0
 40
0.0
  0
LTYPE
  5
243
330
241
100
AcDbSymbolTableRecord
100
AcDbLinetypeTableRecord
  2
ByLayer
 70
     0
  3

 72
    65
 73
     0
 40
0.0
  0
LTYPE
  5
E
330
241
100
AcDbSymbolTableRecord
100
AcDbLinetypeTableRecord
  2
Continuous
 70
     0
  3
Solid line
 72
    65
 73
     0
 40
0.0
  0
LTYPE
  5
14
330
241
100
AcDbSymbolTableRecord
100
AcDbLinetypeTableRecord
  2
HIDDEN
 70
     0
  3
Hidden __ __ __ __ __ __ __ __ __ __ __ __ __ _
 72
    65
 73
     2
 40
0.375
 49
0.25
 74
     0
 49
-0.125
 74
     0
  0
ENDTAB
  0
TABLE
  2
LAYER
  5
239
102
{ACAD_XDICTIONARY
360
23A
102
}
330
0
100
AcDbSymbolTable
 70
     5
  0
LAYER
  5
6
102
{ACAD_XDICTIONARY
360
7
102
}
330
239
100
AcDbSymbolTableRecord
100
AcDbLayerTableRecord
  2
0
 70
     0
 62
     7
  6
Continuous
370
    -3
390
9
1001
RAK
1000
{ACET-LAYISO
1070
     0
1070
     7
1000
Continuous
1071
       -3
1071
        1
1005
9
1000
ACET-LAYISO}
  0
LAYER
  5
1C
102
{ACAD_XDICTIONARY
360
1D
102
}
330
239
100
AcDbSymbolTableRecord
100
AcDbLayerTableRecord
  2
RAMKI-A4
 70
     0
 62
     2
  6
Continuous
290
     0
370
    -3
390
9
1001
RAK
1000
{ACET-LAYISO
1070
     0
1070
     2
1000
Continuous
1071
       -3
1071
        0
1005
9
1000
ACET-LAYISO}
  0
LAYER
  5
25D
102
{ACAD_XDICTIONARY
360
25E
102
}
330
239
100
AcDbSymbolTableRecord
100
AcDbLayerTableRecord
  2
0Wymiary-PL
 70
     0
 62
     1
  6
Continuous
370
     5
390
9
  0
LAYER
  5
16
102
{ACAD_XDICTIONARY
360
17
102
}
330
239
100
AcDbSymbolTableRecord
100
AcDbLayerTableRecord
  2
0Napisy-PL
 70
     0
 62
   140
  6
Continuous
370
    15
390
9
1001
RAK
1000
{ACET-LAYISO
1070
     0
1070
   140
1000
Continuous
1071
       15
1071
        1
1005
9
1000
ACET-LAYISO}
  0
LAYER
  5
11
102
{ACAD_XDICTIONARY
360
12
102
}
330
239
100
AcDbSymbolTableRecord
100
AcDbLayerTableRecord
  2
0Napisy
 70
     0
 62
   140
  6
Continuous
370
    15
390
9
1001
RAK
1000
{ACET-LAYISO
1070
     0
1070
    33
1000
Continuous
1071
       18
1071
        1
1005
9
1000
ACET-LAYISO}
  0
ENDTAB
  0
TABLE
  2
STYLE
  5
23E
330
0
100
AcDbSymbolTable
 70
     4
  0
STYLE
  5
23F
330
23E
100
AcDbSymbolTableRecord
100
AcDbTextStyleTableRecord
  2
Standard
 70
     0
 40
0.0
 41
1.0
 50
0.0
 71
     0
 42
2.5
  3
txt
  4

  0
STYLE
  5
1F0
330
23E
100
AcDbSymbolTableRecord
100
AcDbTextStyleTableRecord
  2
ROMANS
 70
     0
 40
0.0
 41
0.9
 50
0.0
 71
     0
 42
20.0
  3
romans.shx
  4

  0
STYLE
  5
19
330
23E
100
AcDbSymbolTableRecord
100
AcDbTextStyleTableRecord
  2
AVA
 70
     0
 40
0.0
 41
1.0
 50
0.0
 71
     0
 42
158.5644099714409
  3
ARIAL.TTF
  4

1001
ACAD
1000
Arial CE
1071
    60962
  0
STYLE
  5
20
330
23E
100
AcDbSymbolTableRecord
100
AcDbTextStyleTableRecord
  2
ARIAL
 70
     0
 40
0.0
 41
1.0
 50
0.0
 71
     0
 42
20.0
  3
ARIAL.TTF
  4

1001
ACAD
1000
Arial CE
1071
    60962
  0
ENDTAB
  0
TABLE
  2
VIEW
  5
244
330
0
100
AcDbSymbolTable
 70
     1
  0
VIEW
  5
22B
330
244
100
AcDbSymbolTableRecord
100
AcDbViewTableRecord
  2
RODODENDRON 5
 70
     0
 40
14020.0
 10
220287.1664355166
 20
148687.514558954
 41
10200.00000000003
 11
0.0
 21
0.0
 31
1.0
 12
0.0
 22
0.0
 32
0.0
 42
50.0
 43
0.0
 44
0.0
 50
0.0
 71
     0
281
     0
 72
     1
110
0.0
120
0.0
130
0.0
111
1.0
121
0.0
131
0.0
112
0.0
122
1.0
132
0.0
 79
     0
146
0.0
  0
ENDTAB
  0
TABLE
  2
UCS
  5
245
330
0
100
AcDbSymbolTable
 70
     0
  0
ENDTAB
  0
TABLE
  2
APPID
  5
248
330
0
100
AcDbSymbolTable
 70
     5
  0
APPID
  5
1A
330
248
100
AcDbSymbolTableRecord
100
AcDbRegAppTableRecord
  2
ACAD
 70
     0
  0
APPID
  5
F
330
248
100
AcDbSymbolTableRecord
100
AcDbRegAppTableRecord
  2
RAK
 70
     0
  0
APPID
  5
22E
330
248
100
AcDbSymbolTableRecord
100
AcDbRegAppTableRecord
  2
ACAD_PSEXT
 70
     0
  0
APPID
  5
22
330
248
100
AcDbSymbolTableRecord
100
AcDbRegAppTableRecord
  2
DCO15
 70
     0
  0
APPID
  5
21
330
248
100
AcDbSymbolTableRecord
100
AcDbRegAppTableRecord
  2
AcDbBlockRepETag
 70
     0
  0
ENDTAB
  0
TABLE
  2
DIMSTYLE
  5
249
330
0
100
AcDbSymbolTable
 70
     2
100
AcDbDimStyleTable
 71
     2
340
24A
340
253
  0
DIMSTYLE
105
24A
330
249
100
AcDbSymbolTableRecord
100
AcDbDimStyleTableRecord
  2
500
 70
     0
 41
30.0
 42
43.0
 43
0.0
 44
13.0
 45
0.5
 46
12.0
 73
     0
 74
     0
 75
     1
 76
     1
 78
    12
140
80.0
141
0.0
145
1.0
147
0.0
172
     1
174
     1
176
     1
177
     1
178
   140
271
     1
272
     1
279
     2
340
1F0
341
24B
342
24B
  0
DIMSTYLE
105
253
330
249
100
AcDbSymbolTableRecord
100
AcDbDimStyleTableRecord
  2
Standard
 70
     0
340
23F
  0
ENDTAB
  0
TABLE
  2
BLOCK_RECORD
  5
1
330
0
100
AcDbSymbolTable
 70
     1
  0
BLOCK_RECORD
  5
2
102
{ACAD_XDICTIONARY
360
3
102
}
330
1
100
AcDbSymbolTableRecord
100
AcDbBlockTableRecord
  2
*Model_Space
340
229
  0
BLOCK_RECORD
  5
22F
330
1
100
AcDbSymbolTableRecord
100
AcDbBlockTableRecord
  2
*Paper_Space
340
236
  0
BLOCK_RECORD
  5
24B
102
{ACAD_XDICTIONARY
360
24C
102
}
330
1
100
AcDbSymbolTableRecord
100
AcDbBlockTableRecord
  2
B-DIM
340
0
  0
ENDTAB
  0
ENDSEC
  0
SECTION
  2
BLOCKS
  0
BLOCK
  5
5
330
2
100
AcDbEntity
  8
0
100
AcDbBlockBegin
  2
*Model_Space
 70
     0
 10
0.0
 20
0.0
 30
0.0
  3
*Model_Space
  1

  0
ENDBLK
  5
228
330
2
100
AcDbEntity
  8
0
100
AcDbBlockEnd
  0
BLOCK
  5
230
330
22F
100
AcDbEntity
 67
     1
  8
0
100
AcDbBlockBegin
  2
*Paper_Space
 70
     0
 10
0.0
 20
0.0
 30
0.0
  3
*Paper_Space
  1

  0
ENDBLK
  5
235
330
22F
100
AcDbEntity
 67
     1
  8
0
100
AcDbBlockEnd
  0
BLOCK
  5
24E
330
24B
100
AcDbEntity
  8
0
100
AcDbBlockBegin
  2
B-DIM
 70
     0
 10
0.0
 20
0.0
 30
0.0
  3
B-DIM
  1

  0
LINE
  5
24F
330
24B
100
AcDbEntity
  8
0
 62
     1
100
AcDbLine
 10
0.000000000000091
 20
-1.1
 30
0.0
 11
0.000000000000091
 21
1.1
 31
0.0
  0
LWPOLYLINE
  5
250
330
24B
100
AcDbEntity
  8
0
 62
     1
100
AcDbPolyline
 90
        2
 70
     0
 43
0.3
 10
-0.7071067811864851
 20
-0.7071067811864851
 10
0.707106781186576
 20
0.707106781186576
  0
LINE
  5
251
330
24B
100
AcDbEntity
  8
0
 62
     1
100
AcDbLine
 10
1.20000000000009
 20
0.0
 30
0.0
 11
-1.199999999999909
 21
0.0
 31
0.0
  0
ENDBLK
  5
252
330
24B
100
AcDbEntity
  8
0
100
AcDbBlockEnd
  0
ENDSEC
  0
SECTION
  2
ENTITIES
  0
LINE
  5
10
330
2
100
AcDbEntity
  8
0Napisy
  6
HIDDEN
 62
     1
 48
8.0
370
     5
100
AcDbLine
 10
220399.8892448725
 20
132297.6012553763
 30
0.0
 11
220399.8892448725
 21
138473.1198157809
 31
0.0
  0
TEXT
  5
15
330
2
100
AcDbEntity
  8
0Napisy-PL
370
     5
100
AcDbText
 10
216666.4297817526
 20
141116.3055269018
 30
0.0
 40
150.0
  1
"DOM W WERBENACH 7"
  7
AVA
100
AcDbText
  0
LWPOLYLINE
  5
1B
330
2
100
AcDbEntity
  8
RAMKI-A4
370
     5
100
AcDbPolyline
 90
        4
 70
     1
 43
0.0
 10
215187.2000545948
 20
127657.5157057546
 10
215187.2000545948
 20
141677.5157057546
 10
225387.2000545948
 20
141677.5157057546
 10
225387.2000545948
 20
127657.5157057546
  0
MTEXT
  5
1F
102
{ACAD_XDICTIONARY
360
2FC
102
}
330
2
100
AcDbEntity
  8
0Napisy
100
AcDbMText
 10
216765.396492656
 20
140932.3689550166
 30
0.0
 40
150.0
 41
0.0
 71
     1
 72
     5
  1
{\fArial|b0|i0|c238|p34;MO\U+017BNA WKLEI\U+0106 DO PROJEKTU ZAGOSPODAROWANIA TERENU}
  7
ARIAL
 73
     1
 44
1.0
1001
AcDbBlockRepETag
1070
     1
1071
      383
1005
1F
1001
DCO15
1071
        1
1071
        1
1000
_tabelka_-_inform_i_etykiety_Link1
1004
19000000
1000
_tabelka_Arial151
1001
ACAD
1000
MTEXTBEGIN
1070
    73
1070
     1
1070
    44
1040
1.0
1070
    74
1070
     0
1000
MTEXTEND
  0
MTEXT
  5
23
102
{ACAD_XDICTIONARY
360
2FE
102
}
330
2
100
AcDbEntity
  8
0Napisy
100
AcDbMText
 10
220212.6558968869
 20
132370.0274562156
 30
0.0
 40
100.0
 41
0.0
 71
     1
 72
     5
  1
{\fArial|b0|i0|c238|p34;O\U+015A ODBICIA LUSTRZANEGO}
  7
ARIAL
 11
0.0000000000000001
 21
1.0
 31
0.0
 73
     1
 44
1.0
1001
AcDbBlockRepETag
1070
     1
1071
      383
1005
1F
1001
DCO15
1071
        1
1071
        1
1000
_tabelka_-_inform_i_etykiety_Link1
1004
1B000000
1000
_tabelka_Arial151
1001
ACAD
1000
MTEXTBEGIN
1070
    73
1070
     1
1070
    44
1040
1.0
1070
    74
1070
     0
1000
MTEXTEND
  0
MTEXT
  5
24
330
2
100
AcDbEntity
  8
0Napisy
100
AcDbMText
 10
216789.6764640862
 20
128621.06909775
 30
0.0
 40
100.0
 41
0.0
 71
     1
 72
     5
  1
{\fArial|b0|i0|c238|p34;OBRYS  BUDYNKU}
  7
ARIAL
 73
     1
 44
1.0
1001
AcDbBlockRepETag
1070
     1
1071
      383
1005
1F
1001
DCO15
1071
        1
1071
        1
1000
_tabelka_-_inform_i_etykiety_Link1
1004
1A000000
1000
_tabelka_Arial151
1001
ACAD
1000
MTEXTBEGIN
1070
    73
1070
     1
1070
    44
1040
1.0
1070
    74
1070
     0
1000
MTEXTEND
  0
MTEXT
  5
25
330
2
100
AcDbEntity
  8
0Napisy
100
AcDbMText
 10
216789.6764640862
 20
128371.0690977501
 30
0.0
 40
100.0
 41
0.0
 71
     1
 72
     5
  1
{\fArial|b0|i0|c238|p34;Skala:}
  7
ARIAL
 73
     1
 44
1.0
1001
AcDbBlockRepETag
1070
     1
1071
      383
1005
1F
1001
DCO15
1071
        1
1071
        1
1000
_tabelka_-_inform_i_etykiety_Link1
1004
08000000
1000
_tabelka_Arial151
1001
ACAD
1000
MTEXTBEGIN
1070
    73
1070
     1
1070
    44
1040
1.0
1070
    74
1070
     0
1000
MTEXTEND
  0
TEXT
  5
26
330
2
100
AcDbEntity
  8
0Napisy
100
AcDbText
 10
217457.3675813689
 20
128269.3637771498
 30
0.0
 40
100.0
  1
1:500
  7
ARIAL
100
AcDbText
1001
AcDbBlockRepETag
1070
     1
1071
      383
1005
1F
1001
DCO15
1071
        1
1071
        1
1000
_tabelka_-_inform_i_etykiety_Link1
1004
08000000
1000
_tabelka_Arial151
  0
CIRCLE
  5
27
102
{ACAD_REACTORS
330
F1
102
}
330
2
100
AcDbEntity
  8
0
  6
Continuous
370
     5
100
AcDbCircle
 10
218569.3703770174
 20
135048.090667027
 30
0.0
 40
17.0
  0
CIRCLE
  5
28
102
{ACAD_REACTORS
330
F2
102
}
330
2
100
AcDbEntity
  8
0
  6
Continuous
370
     5
100
AcDbCircle
 10
-218849.3703770173
 20
135048.090667027
 30
0.0
 40
17.0
210
0.0
220
0.0
230
-1.0
  0
CIRCLE
  5
29
330
2
100
AcDbEntity
  8
0
  6
Continuous
370
     5
100
AcDbCircle
 10
-218849.3703770173
 20
135048.090667027
 30
0.0
 40
20.0
210
0.0
220
0.0
230
-1.0
  0
LINE
  5
2A
330
2
100
AcDbEntity
  8
0
  6
Continuous
370
     5
100
AcDbLine
 10
218064.3703770174
 20
135858.090667027
 30
0.0
 11
218064.3703770174
 21
135938.090667027
 31
0.0
  0
LINE
  5
2B
330
2
100
AcDbEntity
  8
0
  6
Continuous
370
     5
100
AcDbLine
 10
217904.3703770174
 20
135938.090667027
 30
0.0
 11
217904.3703770174
 21
135858.090667027
 31
0.0
  0
LINE
  5
2C
330
2
100
AcDbEntity
  8
0
  6
Continuous
370
     5
100
AcDbLine
 10
217849.3703770174
 20
135123.090667027
 30
0.0
 11
218159.3703770174
 21
135123.090667027
 31
0.0
  0
LINE
  5
2D
330
2
100
AcDbEntity
  8
0
  6
Continuous
370
     5
100
AcDbLine
 10
217849.3703770174
 20
135188.090667027
 30
0.0
 11
217849.3703770174
 21
135123.090667027
 31
0.0
  0
CIRCLE
  5
2E
330
2
100
AcDbEntity
  8
0
  6
Continuous
370
     5
100
AcDbCircle
 10
218569.3703770174
 20
135048.090667027
 30
0.0
 40
20.0
  0
CIRCLE
  5
2F
330
2
100
AcDbEntity
  8
0
  6
Continuous
370
     5
100
AcDbCircle
 10
218849.3703770173
 20
135048.090667027
 30
0.0
 40
20.0
  0
LINE
  5
30
102
{ACAD_REACTORS
330
EF
102
}
330
2
100
AcDbEntity
  8
0
  6
Continuous
370
     5
100
AcDbLine
 10
218764.3703770174
 20
135123.090667027
 30
0.0
 11
219259.3703770174
 21
135123.090667027
 31
0.0
  0
LINE
  5
31
102
{ACAD_REACTORS
330
EF
102
}
330
2
100
AcDbEntity
  8
0
  6
Continuous
370
     5
100
AcDbLine
 10
218764.3703770174
 20
135183.090667027
 30
0.0
 11
218764.3703770174
 21
135123.090667027
 31
0.0
  0
LINE
  5
32
102
{ACAD_REACTORS
330
F0
102
}
330
2
100
AcDbEntity
  8
0
  6
Continuous
370
     5
100
AcDbLine
 10
218654.3703770174
 20
135123.090667027
 30
0.0
 11
218654.3703770174
 21
135183.090667027
 31
0.0
  0
LINE
  5
33
102
{ACAD_REACTORS
330
F0
102
}
330
2
100
AcDbEntity
  8
0
  6
Continuous
370
     5
100
AcDbLine
 10
218159.3703770174
 20
135123.090667027
 30
0.0
 11
218654.3703770174
 21
135123.090667027
 31
0.0
  0
LINE
  5
34
102
{ACAD_REACTORS
330
F0
102
}
330
2
100
AcDbEntity
  8
0
  6
Continuous
370
     5
100
AcDbLine
 10
218159.3703770174
 20
135188.090667027
 30
0.0
 11
218159.3703770174
 21
135123.090667027
 31
0.0
  0
LINE
  5
35
102
{ACAD_REACTORS
330
EF
102
}
330
2
100
AcDbEntity
  8
0
  6
Continuous
370
     5
100
AcDbLine
 10
219259.3703770174
 20
135923.090667027
 30
0.0
 11
218159.3703770174
 21
135923.090667027
 31
0.0
  0
LINE
  5
36
102
{ACAD_REACTORS
330
EF
102
}
330
2
100
AcDbEntity
  8
0
  6
Continuous
370
     5
100
AcDbLine
 10
219259.3703770174
 20
135923.090667027
 30
0.0
 11
219129.3703770174
 21
135923.090667027
 31
0.0
  0
LINE
  5
37
102
{ACAD_REACTORS
330
EF
102
}
330
2
100
AcDbEntity
  8
0
  6
Continuous
370
     5
100
AcDbLine
 10
217809.3703770174
 20
135858.090667027
 30
0.0
 11
217809.3703770174
 21
135188.090667027
 31
0.0
  0
LINE
  5
38
102
{ACAD_REACTORS
330
F0
102
}
330
2
100
AcDbEntity
  8
0
  6
Continuous
370
     5
100
AcDbLine
 10
218104.3703770173
 20
135188.090667027
 30
0.0
 11
218159.3703770174
 21
135188.090667027
 31
0.0
  0
LINE
  5
39
102
{ACAD_REACTORS
330
EF
102
}
330
2
100
AcDbEntity
  8
0
  6
Continuous
370
     5
100
AcDbLine
 10
217809.3703770174
 20
135188.090667027
 30
0.0
 11
217869.3703770173
 21
135188.090667027
 31
0.0
  0
LINE
  5
3A
102
{ACAD_REACTORS
330
EF
102
}
330
2
100
AcDbEntity
  8
0
  6
Continuous
370
     5
100
AcDbLine
 10
218159.3703770174
 20
135858.090667027
 30
0.0
 11
217809.3703770174
 21
135858.090667027
 31
0.0
  0
LINE
  5
3B
330
2
100
AcDbEntity
  8
0
  6
Continuous
370
     5
100
AcDbLine
 10
218064.3703770174
 20
135938.090667027
 30
0.0
 11
217904.3703770174
 21
135938.090667027
 31
0.0
  0
LINE
  5
3C
102
{ACAD_REACTORS
330
EF
102
}
330
2
100
AcDbEntity
  8
0
  6
Continuous
370
     5
100
AcDbLine
 10
218159.3703770174
 20
135923.090667027
 30
0.0
 11
218159.3703770174
 21
135858.090667027
 31
0.0
  0
LINE
  5
3D
102
{ACAD_REACTORS
330
EF
102
}
330
2
100
AcDbEntity
  8
0
  6
Continuous
370
     5
100
AcDbLine
 10
219259.3703770174
 20
135123.090667027
 30
0.0
 11
219259.3703770174
 21
135923.090667027
 31
0.0
  0
ARC
  5
3E
330
2
100
AcDbEntity
  8
0
  6
Continuous
370
     5
100
AcDbCircle
 10
218439.7982867539
 20
135166.6937630575
 30
-0.0000000000003609
 40
249.5170602941434
100
AcDbArc
 50
190.7151938907744
 51
241.7347939108412
  0
ARC
  5
3F
330
2
100
AcDbEntity
  8
0
  6
Continuous
370
     5
100
AcDbCircle
 10
218451.8727138016
 20
135202.368107612
 30
0.0
 40
286.7277581391942
100
AcDbArc
 50
243.0546610824507
 51
274.7783268381204
  0
ARC
  5
40
330
2
100
AcDbEntity
  8
0
  6
Continuous
370
     5
100
AcDbCircle
 10
218439.8373641182
 20
135166.8084257839
 30
-0.0000000000003609
 40
174.6317273927079
100
AcDbArc
 50
194.4977857564262
 51
269.9871789160653
  0
ARC
  5
41
330
2
100
AcDbEntity
  8
0
  6
Continuous
370
     5
100
AcDbCircle
 10
218314.8157152766
 20
135067.7548649177
 30
-0.0000000000004497
 40
214.261631727463
100
AcDbArc
 50
316.7332182740097
 51
347.9680942077199
  0
ARC
  5
42
330
2
100
AcDbEntity
  8
0
  6
Continuous
370
     5
100
AcDbCircle
 10
218320.3410908371
 20
135064.3067917784
 30
-0.0000000000022486
 40
227.7891349603365
100
AcDbArc
 50
316.6194279178204
 51
349.5754936446689
  0
LINE
  5
43
330
2
100
AcDbEntity
  8
0
  6
Continuous
370
     5
100
AcDbLine
 10
218439.7982867539
 20
134992.1767027634
 30
-0.0000000000003609
 11
218515.3050871542
 21
134992.1767027634
 31
-0.0000000000003609
  0
LINE
  5
44
330
2
100
AcDbEntity
  8
0
  6
Continuous
370
     5
100
AcDbLine
 10
218470.9065213617
 20
134920.838493886
 30
-0.0000000000004396
 11
218486.0179187784
 21
134907.7496865116
 31
-0.0000000000022385
  0
ARC
  5
45
330
2
100
AcDbEntity
  8
0
  6
Continuous
370
     5
100
AcDbCircle
 10
219103.8580481392
 20
135067.7548649177
 30
-0.0000000000004497
 40
214.261631727463
100
AcDbArc
 50
192.03190579228
 51
223.2667817259902
  0
ARC
  5
46
330
2
100
AcDbEntity
  8
0
  6
Continuous
370
     5
100
AcDbCircle
 10
219098.3326725788
 20
135064.3067917784
 30
-0.0000000000022486
 40
227.7891349603365
100
AcDbArc
 50
190.4245063553311
 51
223.3805720821796
  0
LINE
  5
47
330
2
100
AcDbEntity
  8
0
  6
Continuous
370
     5
100
AcDbLine
 10
218947.7672420542
 20
134920.838493886
 30
-0.0000000000004396
 11
218932.6558446375
 21
134907.7496865116
 31
-0.0000000000022385
  0
ARC
  5
48
330
2
100
AcDbEntity
  8
0
  6
Continuous
370
     5
100
AcDbCircle
 10
219042.0377093182
 20
135549.3045655333
 30
-0.0000000000004327
 40
632.3497925130194
100
AcDbArc
 50
294.5445951350824
 51
359.9801485066801
  0
ARC
  5
49
330
2
100
AcDbEntity
  8
0
  6
Continuous
370
     5
100
AcDbCircle
 10
219079.150686812
 20
135447.8992259166
 30
-0.0000000000004826
 40
524.6269370526881
100
AcDbArc
 50
277.1766082831128
 51
295.0085296415023
  0
ARC
  5
4A
330
2
100
AcDbEntity
  8
0
  6
Continuous
370
     5
100
AcDbCircle
 10
218987.7392687395
 20
136154.2180187843
 30
-0.0000000000044971
 40
1236.834249033584
100
AcDbArc
 50
268.0033045960962
 51
277.286940948852
  0
ARC
  5
4B
330
2
100
AcDbEntity
  8
0
  6
Continuous
370
     5
100
AcDbCircle
 10
218943.4214122526
 20
138622.7917763075
 30
0.0000000000014245
 40
3630.772856662656
100
AcDbArc
 50
269.3675538764927
 51
271.9695865628698
  0
ARC
  5
4C
330
2
100
AcDbEntity
  8
0
  6
Continuous
370
     5
100
AcDbCircle
 10
219052.7947610207
 20
135520.3853427702
 30
0.0000000000004247
 40
526.4470692801757
100
AcDbArc
 50
271.6776768019292
 51
311.0033129018746
  0
LINE
  5
4D
330
2
100
AcDbEntity
  8
0
  6
Continuous
370
     5
100
AcDbLine
 10
219674.5327626191
 20
135549.105121277
 30
-0.0000000000005628
 11
219674.3917597423
 21
135697.0479492368
 31
-0.0000000000005628
  0
LINE
  5
4E
330
2
100
AcDbEntity
  8
0
  6
Continuous
370
     5
100
AcDbLine
 10
219599.3874647765
 20
135697.0334978926
 30
0.0
 11
219599.3874813876
 21
135548.9475222178
 31
0.0
  0
LINE
  5
4F
330
2
100
AcDbEntity
  8
0
  6
Continuous
370
     5
100
AcDbLine
 10
219674.3703786284
 20
135717.090667027
 30
0.0
 11
219569.3703798857
 21
135717.090667027
 31
0.0
  0
LINE
  5
50
330
2
100
AcDbEntity
  8
0
  6
Continuous
370
     5
100
AcDbLine
 10
219569.3703798857
 20
135717.090667027
 30
0.0
 11
219569.3703798857
 21
135535.7571633484
 31
0.0
  0
LINE
  5
51
330
2
100
AcDbEntity
  8
0
  6
Continuous
370
     5
100
AcDbLine
 10
219390.0253671789
 20
135153.0906670273
 30
0.0
 11
219259.3703770174
 21
135153.0906670273
 31
0.0
  0
LINE
  5
52
330
2
100
AcDbEntity
  8
0
  6
Continuous
370
     5
100
AcDbLine
 10
219674.3917735334
 20
135697.0334978926
 30
-0.0000000000005627
 11
219674.1997074393
 21
135877.0904849727
 31
0.0
  0
LINE
  5
53
330
2
100
AcDbEntity
  8
0
  6
Continuous
370
     5
100
AcDbLine
 10
219639.3703792571
 20
135877.090667027
 30
-0.0000000000003088
 11
219639.3703792571
 21
135717.090667027
 31
0.0
  0
LINE
  5
54
330
2
100
AcDbEntity
  8
0
  6
Continuous
370
     5
100
AcDbLine
 10
219604.3703798858
 20
135877.090667027
 30
-0.0000000000003089
 11
219604.3703798857
 21
135717.090667027
 31
0.0
  0
LINE
  5
55
330
2
100
AcDbEntity
  8
0
  6
Continuous
370
     5
100
AcDbLine
 10
219569.3703798857
 20
135877.090667027
 30
0.0
 11
219569.3703798857
 21
135717.090667027
 31
-0.0000000000001667
  0
LINE
  5
56
330
2
100
AcDbEntity
  8
0
  6
Continuous
370
     5
100
AcDbLine
 10
218874.3033863985
 20
135123.090667027
 30
0.0000000000004547
 11
218874.3033863985
 21
135023.090667027
 31
0.0
  0
LINE
  5
57
330
2
100
AcDbEntity
  8
0
  6
Continuous
370
     5
100
AcDbLine
 10
218894.3168705899
 20
135023.3199713834
 30
0.0
 11
218894.3168705899
 21
135123.090667027
 31
0.0
  0
LINE
  5
58
330
2
100
AcDbEntity
  8
0
  6
Continuous
370
     5
100
AcDbLine
 10
218894.3033863985
 20
135023.090667027
 30
0.0000000000004769
 11
218874.3033863985
 21
135023.090667027
 31
0.0000000000004547
  0
LINE
  5
59
330
2
100
AcDbEntity
  8
0
  6
Continuous
370
     5
100
AcDbLine
 10
218874.3033863985
 20
135023.090667027
 30
0.0
 11
218544.3703770173
 21
135023.090667027
 31
0.0
  0
LINE
  5
5A
330
2
100
AcDbEntity
  8
0
  6
Continuous
370
     5
100
AcDbLine
 10
218535.3537057771
 20
134989.090667027
 30
0.0000000000000036
 11
218883.3200576387
 21
134989.090667027
 31
0.0000000000000036
  0
LINE
  5
5B
330
2
100
AcDbEntity
  8
0
  6
Continuous
370
     5
100
AcDbLine
 10
218898.4333776819
 20
134955.090667027
 30
0.0000000000030591
 11
218520.2403857339
 21
134955.090667027
 31
-0.0000000000000269
  0
LINE
  5
5C
330
2
100
AcDbEntity
  8
0
  6
Continuous
370
     5
100
AcDbLine
 10
218497.4797592614
 20
134921.0944244535
 30
0.0000000000000107
 11
218921.3341936429
 21
134920.9211981494
 31
0.0000000000000107
  0
LINE
  5
5D
330
2
100
AcDbEntity
  8
0
  6
Continuous
370
     5
100
AcDbLine
 10
219674.1997074393
 20
135897.0904849727
 30
0.0
 11
219674.1997074393
 21
135981.9260722207
 31
-0.0000000000000753
  0
ARC
  5
5E
330
2
100
AcDbEntity
  8
0
  6
Continuous
370
     5
100
AcDbCircle
 10
219369.4335572209
 20
135973.1996139907
 30
-0.0000000000004773
 40
304.8910582359086
100
AcDbArc
 50
1.640118668508866
 51
90.00787471288239
  0
ARC
  5
5F
330
2
100
AcDbEntity
  8
0
  6
Continuous
370
     5
100
AcDbCircle
 10
219368.98598995
 20
135972.214313359
 30
-0.0000000000016857
 40
230.8873717745682
100
AcDbArc
 50
3.810786979805282
 51
88.42846026768336
  0
ARC
  5
60
330
2
100
AcDbEntity
  8
0
  6
Continuous
370
     5
100
AcDbCircle
 10
219368.98598995
 20
135972.214313359
 30
-0.0000000000016857
 40
200.8873717745681
100
AcDbArc
 50
3.810786979805282
 51
88.42846026768336
  0
LINE
  5
61
330
2
100
AcDbEntity
  8
0
  6
Continuous
370
     5
100
AcDbLine
 10
219599.3628635887
 20
135987.5594929739
 30
-0.0000000000004069
 11
219599.3628635887
 21
135897.090667027
 31
-0.0000000000000022
  0
LINE
  5
62
330
2
100
AcDbEntity
  8
0
  6
Continuous
370
     5
100
AcDbLine
 10
219375.3181000373
 20
136203.014839413
 30
-0.0000000000011965
 11
218961.3737946478
 21
136203.0906683296
 31
-0.0000000000005983
  0
LINE
  5
63
330
2
100
AcDbEntity
  8
0
  6
Continuous
370
     5
100
AcDbLine
 10
218961.3737946478
 20
136203.0906683296
 30
-0.0000000000005983
 11
218961.3737946478
 21
136278.0906665555
 31
-0.0000000000014795
  0
LINE
  5
64
330
2
100
AcDbEntity
  8
0
  6
Continuous
370
     5
100
AcDbLine
 10
218961.3737946478
 20
136278.0906665555
 30
-0.0000000000026198
 11
219369.3874607687
 21
136278.0906681587
 31
-0.0000000000013166
  0
LINE
  5
65
330
2
100
AcDbEntity
  8
0
  6
Continuous
370
     5
100
AcDbLine
 10
218961.3737946478
 20
136278.0906665555
 30
-0.0000000000013166
 11
218941.3737946478
 21
136278.0906665555
 31
-0.0000000000013166
  0
LINE
  5
66
330
2
100
AcDbEntity
  8
0
  6
Continuous
370
     5
100
AcDbLine
 10
218941.3737946478
 20
136278.090666477
 30
0.0
 11
218941.3737946478
 21
136173.0295150735
 31
0.0
  0
LINE
  5
67
330
2
100
AcDbEntity
  8
0
  6
Continuous
370
     5
100
AcDbLine
 10
218941.3737946478
 20
136173.0295150735
 30
0.0
 11
219374.8857950039
 21
136173.0295150735
 31
0.0
  0
LINE
  5
68
330
2
100
AcDbEntity
  8
0
  6
Continuous
370
     5
100
AcDbLine
 10
219569.3703798857
 20
135990.0489519036
 30
0.0
 11
219569.3703798857
 21
135877.090667027
 31
0.0
  0
LINE
  5
69
330
2
100
AcDbEntity
  8
0
  6
Continuous
370
     5
100
AcDbLine
 10
219674.1997074393
 20
135877.0904849727
 30
0.0
 11
219674.1997074393
 21
135897.0904849727
 31
0.0
  0
LINE
  5
6A
330
2
100
AcDbEntity
  8
0
  6
Continuous
370
     5
100
AcDbLine
 10
218759.3703781176
 20
136278.090667143
 30
0.0
 11
218759.3703781176
 21
136203.0148394129
 31
0.0
  0
LINE
  5
6B
330
2
100
AcDbEntity
  8
0
  6
Continuous
370
     5
100
AcDbLine
 10
218759.3703781176
 20
136203.0148394129
 30
0.0
 11
218709.3874619082
 21
136203.0906669466
 31
0.0
  0
LINE
  5
6C
330
2
100
AcDbEntity
  8
0
  6
Continuous
370
     5
100
AcDbLine
 10
218709.3874619082
 20
136203.0906669466
 30
0.0
 11
218709.3874619082
 21
135930.090667027
 31
0.0
  0
LINE
  5
6D
330
2
100
AcDbEntity
  8
0
  6
Continuous
370
     5
100
AcDbLine
 10
218739.3703770174
 20
135930.090667027
 30
0.0
 11
218739.3703770174
 21
136173.0148394129
 31
0.0
  0
LINE
  5
6E
330
2
100
AcDbEntity
  8
0
  6
Continuous
370
     5
100
AcDbLine
 10
218739.3703770174
 20
136173.0148394129
 30
0.0
 11
218779.3703770174
 21
136173.0295150735
 31
0.0
  0
LINE
  5
6F
330
2
100
AcDbEntity
  8
0
  6
Continuous
370
     5
100
AcDbLine
 10
218779.3703770174
 20
136173.0295150735
 30
0.0
 11
218779.3703770174
 21
136278.090667143
 31
0.0
  0
LINE
  5
70
330
2
100
AcDbEntity
  8
0
  6
Continuous
370
     5
100
AcDbLine
 10
218779.3703770174
 20
136278.0906665555
 30
-0.0000000000013166
 11
218759.3703781176
 21
136278.090667143
 31
-0.0000000000013166
  0
LINE
  5
71
330
2
100
AcDbEntity
  8
0
  6
Continuous
370
     5
100
AcDbLine
 10
218941.3737946478
 20
136278.0906665555
 30
-0.000000000000665
 11
218779.3703770174
 21
136278.0906665555
 31
-0.0000000000013166
  0
LINE
  5
72
330
2
100
AcDbEntity
  8
0
  6
Continuous
370
     5
100
AcDbLine
 10
218779.3703770174
 20
136243.0906671842
 30
-0.0000000000006339
 11
218941.3737946478
 21
136243.0906671842
 31
-0.0000000000006339
  0
LINE
  5
73
330
2
100
AcDbEntity
  8
0
  6
Continuous
370
     5
100
AcDbLine
 10
218941.3737946478
 20
136208.014839413
 30
-0.000000000001201
 11
218779.3703770174
 21
136208.0906678129
 31
-0.0000000000006028
  0
LINE
  5
74
330
2
100
AcDbEntity
  8
0
  6
Continuous
370
     5
100
AcDbLine
 10
218779.3703770174
 20
136173.0295150735
 30
-0.0000000000005716
 11
218941.3737946478
 21
136173.0148394129
 31
-0.0000000000011433
  0
LINE
  5
75
330
2
100
AcDbEntity
  8
0
  6
Continuous
370
     5
100
AcDbLine
 10
218759.3703770174
 20
136278.090667143
 30
-0.0000000000013166
 11
218634.3874619081
 21
136278.090667143
 31
-0.0000000000013166
  0
LINE
  5
76
330
2
100
AcDbEntity
  8
0
  6
Continuous
370
     5
100
AcDbLine
 10
218634.3874619081
 20
136278.090667143
 30
0.0
 11
218634.3874619081
 21
135930.090667027
 31
0.0
  0
LINE
  5
77
330
2
100
AcDbEntity
  8
0
  6
Continuous
370
     5
100
AcDbLine
 10
219259.3703770174
 20
135123.090667027
 30
0.0
 11
219398.1980866848
 21
135123.090667027
 31
-0.0000000000000253
  0
LINE
  5
78
330
2
100
AcDbEntity
  8
0
  6
Continuous
370
     5
100
AcDbLine
 10
219674.3917735334
 20
135697.0334978926
 30
0.0
 11
219599.3874647765
 21
135697.0334978926
 31
0.0
  0
LINE
  5
79
330
2
100
AcDbEntity
  8
0
  6
Continuous
370
     5
100
AcDbLine
 10
219674.1997072452
 20
135877.090667027
 30
0.0
 11
219569.3703798857
 21
135877.090667027
 31
0.0
  0
LINE
  5
7A
330
2
100
AcDbEntity
  8
0
  6
Continuous
370
     5
100
AcDbLine
 10
219674.1997072452
 20
135897.090667027
 30
-0.0000000000000178
 11
219599.3628635887
 21
135897.090667027
 31
-0.0000000000000178
  0
ARC
  5
7B
330
2
100
AcDbEntity
  8
0
  6
Continuous
370
     5
100
AcDbCircle
 10
219035.902866389
 20
135552.4181398209
 30
0.0000000000000342
 40
533.7276235060622
100
AcDbArc
 50
311.566523182414
 51
358.2111498516683
  0
ARC
  5
7C
330
2
100
AcDbEntity
  8
0
  6
Continuous
370
     5
100
AcDbCircle
 10
219047.1153129553
 20
135549.40703449
 30
-0.0000000000000253
 40
552.2723595985077
100
AcDbArc
 50
309.4723562516541
 51
359.9523276586565
  0
LINE
  5
7D
330
2
100
AcDbEntity
  8
0
  6
Continuous
370
     5
100
AcDbLine
 10
217849.3703770174
 20
135123.090667027
 30
0.0
 11
218003.932295092
 21
135188.090667027
 31
0.0
  0
LINE
  5
7E
330
2
100
AcDbEntity
  8
0
  6
Continuous
370
     5
100
AcDbLine
 10
218003.932295092
 20
135188.090667027
 30
0.0
 11
218159.3703770174
 21
135123.090667027
 31
0.0
  0
LINE
  5
7F
330
2
100
AcDbEntity
  8
0
  6
Continuous
370
     5
100
AcDbLine
 10
218753.2875115673
 20
136203.0906669466
 30
0.0
 11
218709.3874619082
 21
136203.0906669466
 31
0.0
  0
LINE
  5
80
330
2
100
AcDbEntity
  8
0
  6
Continuous
370
     5
100
AcDbLine
 10
218709.3874619082
 20
136203.0906669466
 30
0.0
 11
218709.3874619082
 21
135923.0906669466
 31
0.0
  0
LINE
  5
81
330
2
100
AcDbEntity
  8
0
370
     5
100
AcDbLine
 10
218706.3258442691
 20
135946.6791350832
 30
0.0
 11
218662.9550128293
 21
135950.2933710365
 31
0.0
  0
LINE
  5
82
330
2
100
AcDbEntity
  8
0
370
     5
100
AcDbLine
 10
219074.4765138054
 20
136203.0906683296
 30
-0.0000000000005983
 11
219074.4765138054
 21
136254.0322670114
 31
-0.0000000000005983
  0
LINE
  5
83
330
2
100
AcDbEntity
  8
0
370
     5
100
AcDbLine
 10
219054.4765138054
 20
136203.0906683296
 30
-0.0000000000005983
 11
219054.4765138054
 21
136231.7924439382
 31
-0.0000000000005983
  0
LINE
  5
84
330
2
100
AcDbEntity
  8
0
370
     5
100
AcDbLine
 10
219034.4765138054
 20
136203.0906683296
 30
-0.0000000000005983
 11
219034.4765138054
 21
136254.0322670114
 31
-0.0000000000005983
  0
LINE
  5
85
330
2
100
AcDbEntity
  8
0
370
     5
100
AcDbLine
 10
219014.4765138054
 20
136203.0906683296
 30
-0.0000000000005983
 11
219014.4765138054
 21
136231.7924439382
 31
-0.0000000000005983
  0
LINE
  5
86
330
2
100
AcDbEntity
  8
0
370
     5
100
AcDbLine
 10
218994.4765138054
 20
136203.0906683296
 30
-0.0000000000005983
 11
218994.4765138054
 21
136254.0322670114
 31
-0.0000000000005983
  0
LINE
  5
87
330
2
100
AcDbEntity
  8
0
370
     5
100
AcDbLine
 10
218974.4765138054
 20
136203.0906683296
 30
-0.0000000000005983
 11
218974.4765138054
 21
136231.7924439382
 31
-0.0000000000005983
  0
LINE
  5
88
330
2
100
AcDbEntity
  8
0
370
     5
100
AcDbLine
 10
219099.8506115028
 20
136203.0906683296
 30
-0.0000000000005983
 11
219099.8506115028
 21
136231.7924439382
 31
-0.0000000000005983
  0
LINE
  5
89
330
2
100
AcDbEntity
  8
0
370
     5
100
AcDbLine
 10
219199.8506115028
 20
136203.0906683296
 30
-0.0000000000005983
 11
219199.8506115028
 21
136254.0322670114
 31
-0.0000000000005983
  0
LINE
  5
8A
330
2
100
AcDbEntity
  8
0
370
     5
100
AcDbLine
 10
219179.8506115028
 20
136203.0906683296
 30
-0.0000000000005983
 11
219179.8506115028
 21
136231.7924439382
 31
-0.0000000000005983
  0
LINE
  5
8B
330
2
100
AcDbEntity
  8
0
370
     5
100
AcDbLine
 10
219159.8506115028
 20
136203.0906683296
 30
-0.0000000000005983
 11
219159.8506115028
 21
136254.0322670114
 31
-0.0000000000005983
  0
LINE
  5
8C
330
2
100
AcDbEntity
  8
0
370
     5
100
AcDbLine
 10
219139.8506115028
 20
136203.0906683296
 30
-0.0000000000005983
 11
219139.8506115028
 21
136231.7924439382
 31
-0.0000000000005983
  0
LINE
  5
8D
330
2
100
AcDbEntity
  8
0
370
     5
100
AcDbLine
 10
219119.8506115028
 20
136203.0906683296
 30
-0.0000000000005983
 11
219119.8506115028
 21
136254.0322670114
 31
-0.0000000000005983
  0
LINE
  5
8E
330
2
100
AcDbEntity
  8
0
370
     5
100
AcDbLine
 10
219225.2247092002
 20
136203.0906683296
 30
-0.0000000000005983
 11
219225.2247092002
 21
136231.7924439382
 31
-0.0000000000005983
  0
LINE
  5
8F
330
2
100
AcDbEntity
  8
0
370
     5
100
AcDbLine
 10
219325.2247092003
 20
136203.0906683296
 30
-0.0000000000005983
 11
219325.2247092003
 21
136254.0322670114
 31
-0.0000000000005983
  0
LINE
  5
90
330
2
100
AcDbEntity
  8
0
370
     5
100
AcDbLine
 10
219305.2247092002
 20
136203.0906683296
 30
-0.0000000000005983
 11
219305.2247092002
 21
136231.7924439382
 31
-0.0000000000005983
  0
LINE
  5
91
330
2
100
AcDbEntity
  8
0
370
     5
100
AcDbLine
 10
219285.2247092002
 20
136203.0906683296
 30
-0.0000000000005983
 11
219285.2247092002
 21
136254.0322670114
 31
-0.0000000000005983
  0
LINE
  5
92
330
2
100
AcDbEntity
  8
0
370
     5
100
AcDbLine
 10
219265.2247092002
 20
136203.0906683296
 30
-0.0000000000005983
 11
219265.2247092002
 21
136231.7924439382
 31
-0.0000000000005983
  0
LINE
  5
93
330
2
100
AcDbEntity
  8
0
370
     5
100
AcDbLine
 10
219245.2247092002
 20
136203.0906683296
 30
-0.0000000000005983
 11
219245.2247092002
 21
136254.0322670114
 31
-0.0000000000005983
  0
LINE
  5
94
330
2
100
AcDbEntity
  8
0
370
     5
100
AcDbLine
 10
219350.5988068976
 20
136203.0906683296
 30
-0.0000000000005983
 11
219350.5988068976
 21
136231.7924439382
 31
-0.0000000000005983
  0
LINE
  5
95
330
2
100
AcDbEntity
  8
0
370
     5
100
AcDbLine
 10
219390.5988068976
 20
136203.0906683296
 30
-0.0000000000005983
 11
219390.5988068976
 21
136231.7924439382
 31
-0.0000000000005983
  0
LINE
  5
96
330
2
100
AcDbEntity
  8
0
370
     5
100
AcDbLine
 10
219370.5988068976
 20
136203.0906683296
 30
-0.0000000000005983
 11
219370.5988068976
 21
136254.0322670114
 31
-0.0000000000005983
  0
LINE
  5
97
330
2
100
AcDbEntity
  8
0
370
     5
100
AcDbLine
 10
219404.8107871474
 20
136200.3054406541
 30
1.849902597761841
 11
219415.7295869425
 21
136251.6743549294
 31
-39.28804306489544
  0
LINE
  5
98
330
2
100
AcDbEntity
  8
0
370
     5
100
AcDbLine
 10
219431.5891657024
 20
136195.5717303437
 30
-0.0000000000003304
 11
219440.8596755337
 21
136224.1034258326
 31
-23.50000000000168
  0
LINE
  5
99
330
2
100
AcDbEntity
  8
0
370
     5
100
AcDbLine
 10
219456.9962743647
 20
136185.8188550941
 30
-0.0000000000016858
 11
219477.4564912084
 21
136231.7732545273
 31
-39.40429300828541
  0
LINE
  5
9A
330
2
100
AcDbEntity
  8
0
370
     5
100
AcDbLine
 10
219481.2447471649
 20
136173.4636410909
 30
-0.0000000000016787
 11
219496.2447471649
 21
136199.4444032045
 31
-23.50000000000168
  0
LINE
  5
9B
330
2
100
AcDbEntity
  8
0
370
     5
100
AcDbLine
 10
219504.068912761
 20
136158.6414546445
 30
-0.0000000000016858
 11
219534.6540898622
 21
136200.7383394409
 31
-40.76044547869055
  0
LINE
  5
9C
330
2
100
AcDbEntity
  8
0
370
     5
100
AcDbLine
 10
219525.2187048183
 20
136141.5146907311
 30
-0.0000000000016858
 11
219545.292623009
 21
136163.8090354954
 31
-23.50000000000168
  0
LINE
  5
9D
330
2
100
AcDbEntity
  8
0
370
     5
100
AcDbLine
 10
219544.4624017891
 20
136122.2709937602
 30
-0.0000000000016858
 11
219582.819942568
 21
136156.808278607
 31
-40.43187713446267
  0
LINE
  5
9E
330
2
100
AcDbEntity
  8
0
370
     5
100
AcDbLine
 10
219561.5891657025
 20
136101.121201703
 30
-0.0000000000016858
 11
219585.8596755337
 21
136118.7547592718
 31
-23.50000000000168
  0
LINE
  5
9F
330
2
100
AcDbEntity
  8
0
370
     5
100
AcDbLine
 10
219576.4113521489
 20
136078.297036107
 30
-0.0000000000015081
 11
219619.1798669536
 21
136102.9894496423
 31
-38.68478120532721
  0
LINE
  5
A0
330
2
100
AcDbEntity
  8
0
370
     5
100
AcDbLine
 10
219585.3608382627
 20
136052.7804567607
 30
-0.0000000000016857
 11
219612.7672019919
 21
136064.982556053
 31
-23.50000000000168
  0
LINE
  5
A1
330
2
100
AcDbEntity
  8
0
370
     5
100
AcDbLine
 10
219595.1137135123
 20
136027.3733480986
 30
0.0000000000040643
 11
219640.19669939
 21
136042.0216981752
 31
-37.13239434155307
  0
LINE
  5
A2
330
2
100
AcDbEntity
  8
0
370
     5
100
AcDbLine
 10
219597.7812712801
 20
136003.2255643182
 30
-18.28344243722725
 11
219623.0256678015
 21
136008.5914264441
 31
-38.50000000000023
  0
LINE
  5
A3
330
2
100
AcDbEntity
  8
0
370
     5
100
AcDbLine
 10
219599.8474237841
 20
135975.6750666049
 30
-16.50351588035058
 11
219650.3269711606
 21
135980.9806808284
 31
-56.26363810162994
  0
LINE
  5
A4
330
2
100
AcDbEntity
  8
0
370
     5
100
AcDbLine
 10
219599.3628635887
 20
135948.297036107
 30
-0.0000000000002309
 11
219629.3628635888
 21
135948.297036107
 31
-38.50000000000023
  0
LINE
  5
A5
330
2
100
AcDbEntity
  8
0
370
     5
100
AcDbLine
 10
219599.3628635887
 20
135924.5220343404
 30
-15.00000000000023
 11
219654.4138243705
 21
135924.5220343404
 31
-58.1232526123948
  0
LINE
  5
A6
330
2
100
AcDbEntity
  8
0
370
     5
100
AcDbLine
 10
219599.3628635887
 20
135900.7470325737
 30
-15.00000000000023
 11
219629.3628635888
 21
135900.7470325737
 31
-38.50000000000023
  0
LINE
  5
A7
330
2
100
AcDbEntity
  8
0
370
     5
100
AcDbLine
 10
219599.3628635887
 20
135644.9304198259
 30
-0.0000000000002309
 11
219629.3628635888
 21
135644.9304198259
 31
-38.50000000000023
  0
LINE
  5
A8
330
2
100
AcDbEntity
  8
0
370
     5
100
AcDbLine
 10
219599.3628635887
 20
135668.7054215925
 30
-15.00000000000023
 11
219654.4138243705
 21
135668.7054215925
 31
-58.1232526123948
  0
LINE
  5
A9
330
2
100
AcDbEntity
  8
0
370
     5
100
AcDbLine
 10
219599.3628635887
 20
135692.4804233592
 30
-15.00000000000023
 11
219629.3628635888
 21
135692.4804233592
 31
-38.50000000000023
  0
LINE
  5
AA
330
2
100
AcDbEntity
  8
0
370
     5
100
AcDbLine
 10
219599.3628689225
 20
135597.3804162926
 30
-0.0000000000002309
 11
219629.3628689225
 21
135597.3804162926
 31
-38.50000000000023
  0
LINE
  5
AB
330
2
100
AcDbEntity
  8
0
370
     5
100
AcDbLine
 10
219599.3628689225
 20
135621.1554180592
 30
-15.00000000000023
 11
219654.4138297043
 21
135621.1554180592
 31
-58.1232526123948
  0
LINE
  5
AC
330
2
100
AcDbEntity
  8
0
370
     5
100
AcDbLine
 10
219599.338267224
 20
135549.8304127593
 30
-0.0000000000004619
 11
219629.338267224
 21
135549.8304127593
 31
-38.50000000000046
  0
LINE
  5
AD
330
2
100
AcDbEntity
  8
0
370
     5
100
AcDbLine
 10
219599.338267224
 20
135573.6054145259
 30
-15.00000000000046
 11
219654.3892280058
 21
135573.6054145259
 31
-58.12325261239504
  0
LINE
  5
AE
330
2
100
AcDbEntity
  8
0
370
     5
100
AcDbLine
 10
219599.3628795901
 20
135526.0554109926
 30
-15.00000000000023
 11
219654.4138403719
 21
135526.0554109926
 31
-58.1232526123948
  0
LINE
  5
AF
330
2
100
AcDbEntity
  8
0
370
     5
100
AcDbLine
 10
218477.5516869541
 20
134992.1767027634
 30
-0.0000000000003609
 11
218454.2003913896
 21
134941.5151404346
 31
-0.0000000000003609
  0
LINE
  5
B0
330
2
100
AcDbEntity
  8
0
370
     5
100
AcDbLine
 10
218443.7238688859
 20
134992.1767027634
 30
-0.0000000000003609
 11
218436.8099598517
 21
134962.1767027634
 31
-0.0000000000003609
  0
LINE
  5
B1
330
2
100
AcDbEntity
  8
0
370
     5
100
AcDbLine
 10
218411.7636379419
 20
134994.4480297797
 30
-0.0000000000003609
 11
218411.7636379419
 21
134944.7539438705
 31
-0.0000000000003609
  0
LINE
  5
B2
330
2
100
AcDbEntity
  8
0
370
     5
100
AcDbLine
 10
218391.3701520156
 20
134999.0372436245
 30
-0.0000000000003609
 11
218385.9519512103
 21
134964.8280700833
 31
-0.0000000000003609
  0
LINE
  5
B3
330
2
100
AcDbEntity
  8
0
370
     5
100
AcDbLine
 10
218372.1356236409
 20
135005.8341590563
 30
-0.0000000000003609
 11
218355.9158589706
 21
134955.9148563536
 31
-0.0000000000003609
  0
LINE
  5
B4
330
2
100
AcDbEntity
  8
0
370
     5
100
AcDbLine
 10
218354.1186453996
 20
135014.6619783282
 30
-0.0000000000003609
 11
218336.8552054849
 21
134980.7805697905
 31
-0.0000000000003609
  0
LINE
  5
B5
330
2
100
AcDbEntity
  8
0
370
     5
100
AcDbLine
 10
218337.3682016915
 20
135025.4001128609
 30
-0.0000000000003609
 11
218305.1933065642
 21
134981.1151689146
 31
-0.0000000000003609
  0
LINE
  5
B6
330
2
100
AcDbEntity
  8
0
370
     5
100
AcDbLine
 10
218321.9442821197
 20
135037.9772904592
 30
-0.0000000000003609
 11
218295.0910190462
 21
135011.1240273857
 31
-0.0000000000003609
  0
LINE
  5
B7
330
2
100
AcDbEntity
  8
0
370
     5
100
AcDbLine
 10
218311.039356955
 20
135048.8791522216
 30
-0.0000000000003609
 11
218271.9627162497
 21
135020.4883108976
 31
-0.0000000000003609
  0
LINE
  5
B8
330
2
100
AcDbEntity
  8
0
370
     5
100
AcDbLine
 10
218297.8952103367
 20
135065.0800364719
 30
-0.0000000000003609
 11
218269.536457682
 21
135050.6305302784
 31
-0.0000000000003609
  0
LINE
  5
B9
330
2
100
AcDbEntity
  8
0
370
     5
100
AcDbLine
 10
218288.1417339884
 20
135080.2944037315
 30
-0.0000000000003609
 11
218238.2426833018
 21
135064.0812193401
 31
-0.0000000000003609
  0
LINE
  5
BA
330
2
100
AcDbEntity
  8
0
370
     5
100
AcDbLine
 10
218278.7234515377
 20
135099.4396838841
 30
-0.0000000000003609
 11
218234.246865173
 21
135092.3952846451
 31
-0.0000000000003609
  0
LINE
  5
BB
330
2
100
AcDbEntity
  8
0
370
     5
100
AcDbLine
 10
218271.1598882066
 20
135118.090667027
 30
-0.0000000000003609
 11
218225.764712073
 21
135118.090667027
 31
-0.0000000000003609
  0
LINE
  5
BC
330
2
100
AcDbEntity
  8
0
370
     5
100
AcDbLine
 10
218961.2261434252
 20
134992.2401101503
 30
0.0000000000014245
 11
218961.2261434252
 21
134941.2985114685
 31
0.0000000000014245
  0
LINE
  5
BD
330
2
100
AcDbEntity
  8
0
370
     5
100
AcDbLine
 10
218981.2261434253
 20
134992.2401101503
 30
0.0000000000014245
 11
218981.2261434253
 21
134963.5383345417
 31
0.0000000000014245
  0
LINE
  5
BE
330
2
100
AcDbEntity
  8
0
370
     5
100
AcDbLine
 10
219001.2261434253
 20
134992.2401101503
 30
0.0000000000014245
 11
219001.2261434253
 21
134941.2985114685
 31
0.0000000000014245
  0
LINE
  5
BF
330
2
100
AcDbEntity
  8
0
370
     5
100
AcDbLine
 10
219021.2261434252
 20
134992.2401101503
 30
0.0000000000014245
 11
219021.2261434252
 21
134963.5383345417
 31
0.0000000000014245
  0
LINE
  5
C0
330
2
100
AcDbEntity
  8
0
370
     5
100
AcDbLine
 10
219041.2261434253
 20
134993.336476784
 30
0.0000000000014245
 11
219041.2261434253
 21
134941.2985114685
 31
0.0000000000014245
  0
LINE
  5
C1
330
2
100
AcDbEntity
  8
0
370
     5
100
AcDbLine
 10
218935.8520457278
 20
134992.2401101503
 30
0.0000000000014245
 11
218935.8520457278
 21
134963.5383345417
 31
0.0000000000014245
  0
LINE
  5
C2
330
2
100
AcDbEntity
  8
0
370
     5
100
AcDbLine
 10
219091.7277020902
 20
134995.3798734145
 30
0.0000000000014245
 11
219091.7277020902
 21
134941.2985114685
 31
0.0000000000014245
  0
LINE
  5
C3
330
2
100
AcDbEntity
  8
0
370
     5
100
AcDbLine
 10
219111.7277020902
 20
134997.2472871763
 30
0.0000000000014245
 11
219111.7277020902
 21
134963.5383345417
 31
0.0000000000014245
  0
LINE
  5
C4
330
2
100
AcDbEntity
  8
0
370
     5
100
AcDbLine
 10
219066.3536043928
 20
134994.112909025
 30
0.0000000000014245
 11
219066.3536043928
 21
134963.5383345417
 31
0.0000000000014245
  0
LINE
  5
C5
330
2
100
AcDbEntity
  8
0
370
     5
100
AcDbLine
 10
219135.7553491776
 20
135000.5160730818
 30
0.0000000000004247
 11
219139.1967681037
 21
134948.5065519108
 31
-56.45015012238303
  0
LINE
  5
C6
330
2
100
AcDbEntity
  8
0
370
     5
100
AcDbLine
 10
219161.0798642516
 20
135005.19522915
 30
-13.83324872286602
 11
219165.0265413143
 21
134973.9540633087
 31
-38.49999999999957
  0
LINE
  5
C7
330
2
100
AcDbEntity
  8
0
370
     5
100
AcDbLine
 10
219185.8254686165
 20
135011.0236367201
 30
3.652550678143841
 11
219195.8714362145
 21
134958.3608303213
 31
-54.35188153330159
  0
LINE
  5
C8
330
2
100
AcDbEntity
  8
0
370
     5
100
AcDbLine
 10
219210.1350972732
 20
135018.0004949278
 30
6.265978320334781
 11
219218.8100422841
 21
134984.2138148297
 31
-38.49999999999957
  0
LINE
  5
C9
330
2
100
AcDbEntity
  8
0
370
     5
100
AcDbLine
 10
219233.9854207231
 20
135026.1015562767
 30
-10.2933369450208
 11
219250.7644802248
 21
134974.460921079
 31
-52.82690904275543
  0
LINE
  5
CA
330
2
100
AcDbEntity
  8
0
370
     5
100
AcDbLine
 10
219257.3537800975
 20
135035.3058395256
 30
8.66668002736668
 11
219270.8835564507
 21
135001.1335252345
 31
-38.49999999999957
  0
LINE
  5
CB
330
2
100
AcDbEntity
  8
0
370
     5
100
AcDbLine
 10
219280.2175745185
 20
135045.5955148943
 30
-9.425388079823949
 11
219302.0873213388
 21
134999.1199371815
 31
-49.66055689922936
  0
LINE
  5
CC
330
2
100
AcDbEntity
  8
0
370
     5
100
AcDbLine
 10
219302.553674021
 20
135056.9557341664
 30
-9.439767373790632
 11
219320.4258533886
 21
135024.4463605827
 31
-38.49999999999957
  0
LINE
  5
CD
330
2
100
AcDbEntity
  8
0
370
     5
100
AcDbLine
 10
219324.3378580834
 20
135069.3744081008
 30
7.483957252976717
 11
219351.9927169012
 21
135025.7973235009
 31
-50.18213919105688
  0
LINE
  5
CE
330
2
100
AcDbEntity
  8
0
370
     5
100
AcDbLine
 10
219345.544279896
 20
135082.8419324073
 30
-10.36520500552801
 11
219366.6556214798
 21
135053.7846635343
 31
-38.49999999999957
  0
LINE
  5
CF
330
2
100
AcDbEntity
  8
0
370
     5
100
AcDbLine
 10
219366.1913440852
 20
135097.3852263669
 30
4.84807723858865
 11
219401.2996177587
 21
135053.8826006284
 31
-52.19110786576774
  0
LINE
  5
D0
330
2
100
AcDbEntity
  8
0
370
     5
100
AcDbLine
 10
219501.7187076584
 20
135235.8141252894
 30
-0.0000000000000249
 11
219537.8847005758
 21
135201.8519973549
 31
-38.86316464063718
  0
LINE
  5
D1
330
2
100
AcDbEntity
  8
0
370
     5
100
AcDbLine
 10
219515.7888257305
 20
135257.2599865853
 30
2.843533234454199
 11
219541.7012187755
 21
135235.823390766
 31
-23.50000000000003
  0
LINE
  5
D2
330
2
100
AcDbEntity
  8
0
370
     5
100
AcDbLine
 10
219529.1439734749
 20
135279.8645895688
 30
-0.0000000000000259
 11
219566.4451131744
 21
135252.763725234
 31
-51.1169497069574
  0
LINE
  5
D3
330
2
100
AcDbEntity
  8
0
370
     5
100
AcDbLine
 10
219543.4802115126
 20
135300.9597232381
 30
-15.00000000000002
 11
219568.8100492775
 21
135284.8849193887
 31
-38.50000000000003
  0
LINE
  5
D4
330
2
100
AcDbEntity
  8
0
370
     5
100
AcDbLine
 10
219552.3519534165
 20
135326.3808111172
 30
-17.4276848373236
 11
219594.0818861361
 21
135303.4395864688
 31
-54.73020465314791
  0
LINE
  5
D5
330
2
100
AcDbEntity
  8
0
370
     5
100
AcDbLine
 10
219562.1865573729
 20
135350.1424557245
 30
-1.377411765305448
 11
219588.3602109513
 21
135337.8260692417
 31
-38.5
  0
LINE
  5
D6
330
2
100
AcDbEntity
  8
0
370
     5
100
AcDbLine
 10
219571.3448693467
 20
135374.0072719741
 30
0.0
 11
219618.4022650802
 21
135354.658142124
 31
-51.31238769676214
  0
LINE
  5
D7
330
2
100
AcDbEntity
  8
0
370
     5
100
AcDbLine
 10
219579.9845616919
 20
135398.0049406477
 30
-15.0
 11
219608.5162571808
 21
135388.7344308166
 31
-38.5
  0
LINE
  5
D8
330
2
100
AcDbEntity
  8
0
370
     5
100
AcDbLine
 10
219587.1003794943
 20
135422.497746175
 30
-15.0
 11
219638.3705837454
 21
135410.5259967846
 31
-52.70909409625756
  0
LINE
  5
D9
330
2
100
AcDbEntity
  8
0
370
     5
100
AcDbLine
 10
219592.664239872
 20
135447.3890266422
 30
-15.0
 11
219629.4290283832
 21
135440.3757681513
 31
-44.31839369027442
  0
LINE
  5
DA
330
2
100
AcDbEntity
  8
0
370
     5
100
AcDbLine
 10
219596.6541848098
 20
135472.5805475371
 30
-15.0
 11
219644.9901488923
 21
135466.4742952378
 31
-53.16410724939787
  0
LINE
  5
DB
330
2
100
AcDbEntity
  8
0
370
     5
100
AcDbLine
 10
219599.054467818
 20
135497.9728894353
 30
-15.0
 11
219628.9952696708
 21
135496.0891738493
 31
-38.5
  0
LINE
  5
DC
330
2
100
AcDbEntity
  8
0
370
     5
100
AcDbLine
 10
219419.1577429263
 20
135141.2536448462
 30
-0.0000000000000249
 11
219443.2166489305
 21
135116.6137352816
 31
-26.09555393288388
  0
LINE
  5
DD
330
2
100
AcDbEntity
  8
0
370
     5
100
AcDbLine
 10
219441.0670902669
 20
135162.3582567765
 30
-0.0000000000000249
 11
219472.6309791697
 21
135125.8861368039
 31
-33.05657676566041
  0
LINE
  5
DE
330
2
100
AcDbEntity
  8
0
370
     5
100
AcDbLine
 10
219458.1363877002
 20
135180.5351932064
 30
-0.0000000000000254
 11
219475.1706766385
 21
135163.4773948007
 31
-19.25000000000001
  0
LINE
  5
DF
330
2
100
AcDbEntity
  8
0
370
     5
100
AcDbLine
 10
219472.5299815949
 20
135197.232193136
 30
-0.0000000000000253
 11
219515.7420428031
 21
135162.7443398048
 31
-57.03918510435642
  0
LINE
  5
E0
330
2
100
AcDbEntity
  8
0
370
     5
100
AcDbLine
 10
219487.8476219658
 20
135215.3395416335
 30
-0.6229786084220859
 11
219509.788291796
 21
135196.5230545162
 31
-28.75777360289365
  0
LINE
  5
E1
330
2
100
AcDbEntity
  8
0
370
     5
100
AcDbLine
 10
219384.8608859696
 20
135111.8775638784
 30
-10.36520500552801
 11
219405.9722275534
 21
135082.8202950054
 31
-38.49999999999957
  0
LINE
  5
E2
330
2
100
AcDbEntity
  8
0
370
     5
100
AcDbLine
 10
219403.1312008069
 20
135127.2015788483
 30
-0.0000000000000253
 11
219434.5255450027
 21
135083.9909710921
 31
-41.83881135291628
  0
LINE
  5
E3
102
{ACAD_REACTORS
330
F0
102
}
330
2
100
AcDbEntity
  8
0
  6
Continuous
370
     5
100
AcDbLine
 10
218104.3703770173
 20
135188.090667027
 30
0.0
 11
218104.3703770173
 21
135248.090667027
 31
0.0
  0
LINE
  5
E4
102
{ACAD_REACTORS
330
F0
102
}
330
2
100
AcDbEntity
  8
0
  6
Continuous
370
     5
100
AcDbLine
 10
218219.3703770174
 20
135183.090667027
 30
0.0
 11
218654.3703770174
 21
135183.090667027
 31
0.0
  0
LINE
  5
E5
102
{ACAD_REACTORS
330
F0
102
}
330
2
100
AcDbEntity
  8
0
  6
Continuous
370
     5
100
AcDbLine
 10
218219.3703770174
 20
135248.090667027
 30
0.0
 11
218219.3703770173
 21
135183.090667027
 31
0.0
  0
LINE
  5
E6
102
{ACAD_REACTORS
330
F0
102
}
330
2
100
AcDbEntity
  8
0
  6
Continuous
370
     5
100
AcDbLine
 10
218104.3703770173
 20
135248.090667027
 30
0.0
 11
218219.3703770174
 21
135248.090667027
 31
0.0
  0
LINE
  5
E7
102
{ACAD_REACTORS
330
EF
102
}
330
2
100
AcDbEntity
  8
0
  6
Continuous
370
     5
100
AcDbLine
 10
218764.3703770174
 20
135183.090667027
 30
0.0
 11
219199.3703770174
 21
135183.090667027
 31
0.0
  0
LINE
  5
E8
102
{ACAD_REACTORS
330
EF
102
}
330
2
100
AcDbEntity
  8
0
  6
Continuous
370
     5
100
AcDbLine
 10
219199.3703770174
 20
135183.090667027
 30
0.0
 11
219199.3703770174
 21
135863.090667027
 31
0.0
  0
LINE
  5
E9
102
{ACAD_REACTORS
330
EF
102
}
330
2
100
AcDbEntity
  8
0
  6
Continuous
370
     5
100
AcDbLine
 10
219199.3703770174
 20
135863.090667027
 30
0.0
 11
218219.3703770174
 21
135863.090667027
 31
0.0
  0
LINE
  5
EA
102
{ACAD_REACTORS
330
EF
102
}
330
2
100
AcDbEntity
  8
0
  6
Continuous
370
     5
100
AcDbLine
 10
218219.3703770174
 20
135863.090667027
 30
0.0
 11
218219.3703770174
 21
135798.090667027
 31
0.0
  0
LINE
  5
EB
102
{ACAD_REACTORS
330
EF
102
}
330
2
100
AcDbEntity
  8
0
  6
Continuous
370
     5
100
AcDbLine
 10
218219.3703770174
 20
135798.090667027
 30
0.0
 11
217869.3703770174
 21
135798.090667027
 31
0.0
  0
LINE
  5
EC
102
{ACAD_REACTORS
330
EF
102
}
330
2
100
AcDbEntity
  8
0
  6
Continuous
370
     5
100
AcDbLine
 10
217869.3703770174
 20
135798.090667027
 30
0.0
 11
217869.3703770174
 21
135188.090667027
 31
0.0
  0
LINE
  5
ED
330
2
100
AcDbEntity
  8
0
370
     5
100
AcDbLine
 10
218104.3703770173
 20
135188.090667027
 30
0.0
 11
217869.3703770173
 21
135188.090667027
 31
0.0
  0
LINE
  5
EE
330
2
100
AcDbEntity
  8
0
370
     5
100
AcDbLine
 10
218104.3703770173
 20
135248.090667027
 30
0.0
 11
217869.3703770174
 21
135248.090667027
 31
0.0
  0
HATCH
  5
EF
330
2
100
AcDbEntity
  8
0
370
     5
100
AcDbHatch
 10
0.0
 20
0.0
 30
0.0
210
0.0
220
0.0
230
1.0
  2
SOLID
 70
     1
 71
     1
 91
        1
 92
        7
 72
     0
 73
     1
 93
       15
 10
218159.3703770174
 20
135923.090667027
 10
218159.3703770174
 20
135858.090667027
 10
217809.3703770174
 20
135858.090667027
 10
217809.3703770173
 20
135188.090667027
 10
217869.3703770174
 20
135188.090667027
 10
217869.3703770174
 20
135798.090667027
 10
218219.3703770173
 20
135798.090667027
 10
218219.3703770173
 20
135863.090667027
 10
219199.3703770173
 20
135863.090667027
 10
219199.3703770174
 20
135183.090667027
 10
218764.3703770174
 20
135183.090667027
 10
218764.3703770174
 20
135123.090667027
 10
219259.3703770174
 20
135123.090667027
 10
219259.3703770174
 20
135923.0906670271
 10
219129.3703770174
 20
135923.090667027
 97
       15
330
36
330
35
330
3C
330
3A
330
37
330
39
330
EC
330
EB
330
EA
330
E9
330
E8
330
E7
330
31
330
30
330
3D
 75
     0
 76
     1
 47
3.014034578017052
 98
        1
 10
218769.5692663505
 20
135901.143475189
1001
ACAD
1010
0.0
1020
0.0
1030
0.0
  0
HATCH
  5
F0
330
2
100
AcDbEntity
  8
0
370
     5
100
AcDbHatch
 10
0.0
 20
0.0
 30
0.0
210
0.0
220
0.0
230
1.0
  2
SOLID
 70
     1
 71
     1
 91
        1
 92
        7
 72
     0
 73
     1
 93
        8
 10
218219.3703770174
 20
135183.090667027
 10
218219.3703770173
 20
135248.090667027
 10
218104.3703770173
 20
135248.090667027
 10
218104.3703770173
 20
135188.090667027
 10
218159.3703770174
 20
135188.090667027
 10
218159.3703770174
 20
135123.090667027
 10
218654.3703770174
 20
135123.090667027
 10
218654.3703770174
 20
135183.090667027
 97
        8
330
E4
330
E5
330
E6
330
E3
330
38
330
34
330
33
330
32
 75
     0
 76
     1
 47
2.112261401044084
 98
        1
 10
218387.795141324
 20
135168.0953216309
1001
ACAD
1010
0.0
1020
0.0
1030
0.0
  0
HATCH
  5
F1
330
2
100
AcDbEntity
  8
0
370
     5
100
AcDbHatch
 10
0.0
 20
0.0
 30
0.0
210
0.0
220
0.0
230
1.0
  2
SOLID
 70
     1
 71
     1
 91
        1
 92
        7
 72
     1
 73
     1
 93
        2
 10
218586.3703770174
 20
135048.090667027
 42
1.0
 10
218552.3703770174
 20
135048.090667027
 42
1.0
 97
        1
330
27
 75
     0
 76
     1
 47
1.037400648811235
 98
        1
 10
218571.6024811897
 20
135048.8897684753
1001
ACAD
1010
0.0
1020
0.0
1030
0.0
  0
HATCH
  5
F2
330
2
100
AcDbEntity
  8
0
370
     5
100
AcDbHatch
 10
0.0
 20
0.0
 30
0.0
210
0.0
220
0.0
230
1.0
  2
SOLID
 70
     1
 71
     1
 91
        1
 92
        7
 72
     1
 73
     1
 93
        2
 10
218866.3703770174
 20
135048.090667027
 42
1.0
 10
218832.3703770174
 20
135048.090667027
 42
1.0
 97
        1
330
28
 75
     0
 76
     1
 47
1.037400648811235
 98
        1
 10
218857.1016960108
 20
135037.4783455659
1001
ACAD
1010
0.0
1020
0.0
1030
0.0
  0
LINE
  5
F3
330
2
100
AcDbEntity
  8
0
370
     5
100
AcDbLine
 10
218764.3703770174
 20
135123.090667027
 30
0.0
 11
218654.3703770174
 21
135123.090667027
 31
0.0
  0
LINE
  5
F4
330
2
100
AcDbEntity
  8
0
370
     5
100
AcDbLine
 10
218764.3703770174
 20
135183.090667027
 30
0.0
 11
218654.3703770174
 21
135183.090667027
 31
0.0
  0
LINE
  5
F5
330
2
100
AcDbEntity
  8
0
  6
Continuous
370
     5
100
AcDbLine
 10
218753.2875115673
 20
136203.0906669466
 30
0.0
 11
218709.3874619082
 21
136203.0906669466
 31
0.0
  0
LINE
  5
F6
330
2
100
AcDbEntity
  8
0
  6
Continuous
370
     5
100
AcDbLine
 10
218709.3874619082
 20
136203.0906669466
 30
0.0
 11
218709.3874619082
 21
135923.0906669466
 31
0.0
  0
LINE
  5
F7
330
2
100
AcDbEntity
  8
0
370
     5
100
AcDbLine
 10
218709.3874619082
 20
135969.7573336132
 30
0.0
 11
218683.2403184169
 21
135974.1151908617
 31
0.0
  0
LINE
  5
F8
330
2
100
AcDbEntity
  8
0
370
     5
100
AcDbLine
 10
218680.4544032431
 20
136000.3239316128
 30
0.0
 11
218653.8741491577
 21
136006.9689951342
 31
0.0
  0
LINE
  5
F9
330
2
100
AcDbEntity
  8
0
370
     5
100
AcDbLine
 10
218709.3874619082
 20
136016.4240002799
 30
0.0
 11
218679.3874619082
 21
136026.4240002799
 31
0.0
  0
LINE
  5
FA
330
2
100
AcDbEntity
  8
0
370
     5
100
AcDbLine
 10
218709.3874619082
 20
136039.7573336132
 30
0.0
 11
218660.8465184375
 21
136059.982726726
 31
0.0
  0
LINE
  5
FB
330
2
100
AcDbEntity
  8
0
370
     5
100
AcDbLine
 10
218709.3874619082
 20
136063.0906669466
 30
0.0
 11
218679.3874619082
 21
136078.0906669466
 31
0.0
  0
LINE
  5
FC
330
2
100
AcDbEntity
  8
0
370
     5
100
AcDbLine
 10
218709.3874619082
 20
136086.4240002799
 30
0.0
 11
218662.0694465975
 21
136114.0261758778
 31
0.0
  0
LINE
  5
FD
330
2
100
AcDbEntity
  8
0
370
     5
100
AcDbLine
 10
218709.3874619082
 20
136109.7573336132
 30
0.0
 11
218679.3874619082
 21
136129.7573336132
 31
0.0
  0
LINE
  5
FE
330
2
100
AcDbEntity
  8
0
370
     5
100
AcDbLine
 10
218709.3874619082
 20
136133.0906669466
 30
0.0
 11
218660.4025343317
 21
136169.8293626289
 31
0.0
  0
LINE
  5
FF
330
2
100
AcDbEntity
  8
0
370
     5
100
AcDbLine
 10
218709.3874619082
 20
136156.4240002799
 30
0.0
 11
218679.3874619082
 21
136181.4240002799
 31
0.0
  0
LINE
  5
100
330
2
100
AcDbEntity
  8
0
370
     5
100
AcDbLine
 10
218709.3874619082
 20
136179.7573336132
 30
0.0
 11
218658.9401643573
 21
136226.0006897015
 31
0.0
  0
LINE
  5
101
330
2
100
AcDbEntity
  8
0
370
     5
100
AcDbLine
 10
218709.3874619082
 20
136203.0906669466
 30
0.0
 11
218689.2081452357
 21
136223.269983619
 31
0.0
  0
LINE
  5
102
330
2
100
AcDbEntity
  8
0
370
     5
100
AcDbLine
 10
218724.0208117946
 20
136203.0906669466
 30
0.0
 11
218691.8710193573
 21
136251.3153556024
 31
0.0
  0
LINE
  5
103
330
2
100
AcDbEntity
  8
0
370
     5
100
AcDbLine
 10
218738.654161681
 20
136203.0906669466
 30
0.0
 11
218728.6541616809
 21
136233.0906669465
 31
0.0
  0
LINE
  5
104
330
2
100
AcDbEntity
  8
0
  6
Continuous
370
     5
100
AcDbLine
 10
218524.3703770174
 20
135123.090667027
 30
0.0
 11
218524.3703770174
 21
135023.090667027
 31
0.0
  0
LINE
  5
105
330
2
100
AcDbEntity
  8
0
  6
Continuous
370
     5
100
AcDbLine
 10
218524.3703770174
 20
135023.090667027
 30
0.0
 11
218544.3703770173
 21
135023.0906670271
 31
0.0
  0
LINE
  5
106
330
2
100
AcDbEntity
  8
0
  6
Continuous
370
     5
100
AcDbLine
 10
218544.3703770173
 20
135023.0906670271
 30
0.0
 11
218544.3703770173
 21
135123.090667027
 31
0.0
  0
HATCH
  5
107
330
2
100
AcDbEntity
  8
0
370
     5
100
AcDbHatch
 10
0.0
 20
0.0
 30
0.0
210
0.0
220
0.0
230
1.0
  2
SOLID
 70
     1
 71
     1
 91
        1
 92
        7
 72
     1
 73
     1
 93
        2
 10
222247.4081127276
 20
135048.0906670268
 42
1.0
 10
222213.4081127276
 20
135048.0906670268
 42
1.0
 97
        1
330
108
 75
     0
 76
     1
 47
1.037400648811235
 98
        1
 10
222228.1760085553
 20
135048.8897684751
1001
ACAD
1010
0.0
1020
0.0
1030
0.0
  0
CIRCLE
  5
108
102
{ACAD_REACTORS
330
107
102
}
330
2
100
AcDbEntity
  8
0
  6
Continuous
370
     5
100
AcDbCircle
 10
222230.4081127276
 20
135048.0906670268
 30
0.0
 40
17.0
  0
HATCH
  5
109
330
2
100
AcDbEntity
  8
0
370
     5
100
AcDbHatch
 10
0.0
 20
0.0
 30
0.0
210
0.0
220
0.0
230
1.0
  2
SOLID
 70
     1
 71
     1
 91
        1
 92
        7
 72
     1
 73
     1
 93
        2
 10
221967.4081127276
 20
135048.0906670268
 42
1.0
 10
221933.4081127277
 20
135048.0906670268
 42
1.0
 97
        1
330
10A
 75
     0
 76
     1
 47
1.037400648811235
 98
        1
 10
221942.6767937342
 20
135037.4783455658
1001
ACAD
1010
0.0
1020
0.0
1030
0.0
  0
CIRCLE
  5
10A
102
{ACAD_REACTORS
330
109
102
}
330
2
100
AcDbEntity
  8
0
  6
Continuous
370
     5
100
AcDbCircle
 10
-221950.4081127277
 20
135048.0906670268
 30
0.0
 40
17.0
210
0.0
220
0.0
230
-1.0
  0
CIRCLE
  5
10B
330
2
100
AcDbEntity
  8
0
  6
Continuous
370
     5
100
AcDbCircle
 10
-221950.4081127277
 20
135048.0906670268
 30
0.0
 40
20.0
210
0.0
220
0.0
230
-1.0
  0
LINE
  5
10C
330
2
100
AcDbEntity
  8
0
  6
Continuous
370
     5
100
AcDbLine
 10
222735.4081127277
 20
135858.0906670268
 30
0.0
 11
222735.4081127277
 21
135938.0906670268
 31
0.0
  0
LINE
  5
10D
330
2
100
AcDbEntity
  8
0
  6
Continuous
370
     5
100
AcDbLine
 10
222895.4081127278
 20
135938.0906670268
 30
0.0
 11
222895.4081127277
 21
135858.0906670268
 31
0.0
  0
LINE
  5
10E
330
2
100
AcDbEntity
  8
0
  6
Continuous
370
     5
100
AcDbLine
 10
222950.4081127277
 20
135123.0906670268
 30
0.0
 11
222640.4081127277
 21
135123.0906670268
 31
0.0
  0
LINE
  5
10F
330
2
100
AcDbEntity
  8
0
  6
Continuous
370
     5
100
AcDbLine
 10
222950.4081127277
 20
135188.0906670268
 30
0.0
 11
222950.4081127277
 21
135123.0906670268
 31
0.0
  0
CIRCLE
  5
110
330
2
100
AcDbEntity
  8
0
  6
Continuous
370
     5
100
AcDbCircle
 10
222230.4081127276
 20
135048.0906670268
 30
0.0
 40
20.0
  0
CIRCLE
  5
111
330
2
100
AcDbEntity
  8
0
  6
Continuous
370
     5
100
AcDbCircle
 10
221950.4081127277
 20
135048.0906670268
 30
0.0
 40
20.0
  0
HATCH
  5
112
330
2
100
AcDbEntity
  8
0
370
     5
100
AcDbHatch
 10
0.0
 20
0.0
 30
0.0
210
0.0
220
0.0
230
1.0
  2
SOLID
 70
     1
 71
     0
 91
        1
 92
        7
 72
     0
 73
     1
 93
       15
 10
222640.4081127277
 20
135923.0906670268
 10
222640.4081127277
 20
135858.0906670268
 10
222990.4081127277
 20
135858.0906670268
 10
222990.4081127277
 20
135188.0906670267
 10
222930.4081127277
 20
135188.0906670268
 10
222930.4081127277
 20
135798.0906670268
 10
222580.4081127277
 20
135798.0906670268
 10
222580.4081127277
 20
135863.0906670268
 10
221600.4081127278
 20
135863.0906670269
 10
221600.4081127277
 20
135183.0906670269
 10
222035.4081127277
 20
135183.0906670269
 10
222035.4081127276
 20
135123.0906670269
 10
221540.4081127276
 20
135123.0906670269
 10
221540.4081127277
 20
135923.0906670269
 10
221670.4081127277
 20
135923.0906670269
 97
        0
 75
     0
 76
     1
 47
3.014034578017052
 98
        1
 10
222030.2092233946
 20
135901.1434751888
1001
ACAD
1010
0.0
1020
0.0
1030
0.0
  0
LINE
  5
113
330
2
100
AcDbEntity
  8
0
  6
Continuous
370
     5
100
AcDbLine
 10
222035.4081127277
 20
135123.0906670269
 30
0.0
 11
221540.4081127277
 21
135123.0906670269
 31
0.0
  0
LINE
  5
114
330
2
100
AcDbEntity
  8
0
  6
Continuous
370
     5
100
AcDbLine
 10
222035.4081127277
 20
135183.0906670269
 30
0.0
 11
221600.4081127277
 21
135183.0906670269
 31
0.0
  0
LINE
  5
115
330
2
100
AcDbEntity
  8
0
  6
Continuous
370
     5
100
AcDbLine
 10
222035.4081127277
 20
135183.0906670269
 30
0.0
 11
222035.4081127277
 21
135123.0906670269
 31
0.0
  0
HATCH
  5
116
330
2
100
AcDbEntity
  8
0
370
     5
100
AcDbHatch
 10
0.0
 20
0.0
 30
0.0
210
0.0
220
0.0
230
1.0
  2
SOLID
 70
     1
 71
     1
 91
        1
 92
        7
 72
     0
 73
     1
 93
        8
 10
222145.4081127276
 20
135183.0906670269
 10
222145.4081127276
 20
135123.0906670269
 10
222640.4081127276
 20
135123.0906670268
 10
222640.4081127277
 20
135188.0906670268
 10
222695.4081127276
 20
135188.0906670268
 10
222695.4081127276
 20
135248.0906670268
 10
222580.4081127277
 20
135248.0906670268
 10
222580.4081127277
 20
135183.0906670268
 97
        8
330
119
330
11B
330
122
330
1E2
330
121
330
11A
330
118
330
117
 75
     0
 76
     1
 47
2.112261401044084
 98
        1
 10
222411.9833484211
 20
135168.0953216307
1001
ACAD
1010
0.0
1020
0.0
1030
0.0
  0
LINE
  5
117
102
{ACAD_REACTORS
330
116
102
}
330
2
100
AcDbEntity
  8
0
  6
Continuous
370
     5
100
AcDbLine
 10
222145.4081127276
 20
135123.0906670269
 30
0.0
 11
222145.4081127276
 21
135183.0906670269
 31
0.0
  0
LINE
  5
118
102
{ACAD_REACTORS
330
116
102
}
330
2
100
AcDbEntity
  8
0
  6
Continuous
370
     5
100
AcDbLine
 10
222640.4081127277
 20
135123.0906670268
 30
0.0
 11
222145.4081127276
 21
135123.0906670269
 31
0.0
  0
LINE
  5
119
102
{ACAD_REACTORS
330
116
102
}
330
2
100
AcDbEntity
  8
0
  6
Continuous
370
     5
100
AcDbLine
 10
222580.4081127277
 20
135183.0906670268
 30
0.0
 11
222145.4081127276
 21
135183.0906670269
 31
0.0
  0
LINE
  5
11A
102
{ACAD_REACTORS
330
116
102
}
330
2
100
AcDbEntity
  8
0
  6
Continuous
370
     5
100
AcDbLine
 10
222640.4081127277
 20
135188.0906670268
 30
0.0
 11
222640.4081127277
 21
135123.0906670268
 31
0.0
  0
LINE
  5
11B
102
{ACAD_REACTORS
330
116
102
}
330
2
100
AcDbEntity
  8
0
  6
Continuous
370
     5
100
AcDbLine
 10
222580.4081127277
 20
135248.0906670268
 30
0.0
 11
222580.4081127277
 21
135183.0906670268
 31
0.0
  0
LINE
  5
11C
330
2
100
AcDbEntity
  8
0
  6
Continuous
370
     5
100
AcDbLine
 10
221540.4081127277
 20
135923.0906670269
 30
0.0
 11
222640.4081127277
 21
135923.0906670268
 31
0.0
  0
LINE
  5
11D
330
2
100
AcDbEntity
  8
0
  6
Continuous
370
     5
100
AcDbLine
 10
221600.4081127277
 20
135863.0906670269
 30
0.0
 11
222580.4081127277
 21
135863.0906670268
 31
0.0
  0
LINE
  5
11E
330
2
100
AcDbEntity
  8
0
  6
Continuous
370
     5
100
AcDbLine
 10
221540.4081127277
 20
135923.0906670269
 30
0.0
 11
221670.4081127277
 21
135923.0906670269
 31
0.0
  0
LINE
  5
11F
330
2
100
AcDbEntity
  8
0
  6
Continuous
370
     5
100
AcDbLine
 10
222990.4081127277
 20
135858.0906670268
 30
0.0
 11
222990.4081127277
 21
135188.0906670268
 31
0.0
  0
LINE
  5
120
330
2
100
AcDbEntity
  8
0
  6
Continuous
370
     5
100
AcDbLine
 10
222930.4081127277
 20
135798.0906670268
 30
0.0
 11
222930.4081127277
 21
135188.0906670268
 31
0.0
  0
LINE
  5
121
102
{ACAD_REACTORS
330
116
102
}
330
2
100
AcDbEntity
  8
0
  6
Continuous
370
     5
100
AcDbLine
 10
222695.4081127276
 20
135188.0906670268
 30
0.0
 11
222640.4081127277
 21
135188.0906670268
 31
0.0
  0
LINE
  5
122
102
{ACAD_REACTORS
330
116
102
}
330
2
100
AcDbEntity
  8
0
  6
Continuous
370
     5
100
AcDbLine
 10
222695.4081127276
 20
135248.0906670268
 30
0.0
 11
222580.4081127277
 21
135248.0906670268
 31
0.0
  0
LINE
  5
123
330
2
100
AcDbEntity
  8
0
  6
Continuous
370
     5
100
AcDbLine
 10
222990.4081127277
 20
135188.0906670268
 30
0.0
 11
222930.4081127277
 21
135188.0906670268
 31
0.0
  0
LINE
  5
124
330
2
100
AcDbEntity
  8
0
  6
Continuous
370
     5
100
AcDbLine
 10
222640.4081127277
 20
135858.0906670268
 30
0.0
 11
222990.4081127277
 21
135858.0906670268
 31
0.0
  0
LINE
  5
125
330
2
100
AcDbEntity
  8
0
  6
Continuous
370
     5
100
AcDbLine
 10
222580.4081127277
 20
135798.0906670268
 30
0.0
 11
222930.4081127277
 21
135798.0906670268
 31
0.0
  0
LINE
  5
126
330
2
100
AcDbEntity
  8
0
  6
Continuous
370
     5
100
AcDbLine
 10
222735.4081127277
 20
135938.0906670268
 30
0.0
 11
222895.4081127278
 21
135938.0906670268
 31
0.0
  0
LINE
  5
127
330
2
100
AcDbEntity
  8
0
  6
Continuous
370
     5
100
AcDbLine
 10
222640.4081127277
 20
135923.0906670268
 30
0.0
 11
222640.4081127277
 21
135858.0906670268
 31
0.0
  0
LINE
  5
128
330
2
100
AcDbEntity
  8
0
  6
Continuous
370
     5
100
AcDbLine
 10
222580.4081127277
 20
135863.0906670268
 30
0.0
 11
222580.4081127277
 21
135798.0906670268
 31
0.0
  0
LINE
  5
129
330
2
100
AcDbEntity
  8
0
  6
Continuous
370
     5
100
AcDbLine
 10
221540.4081127277
 20
135123.0906670269
 30
0.0
 11
221540.4081127277
 21
135923.0906670269
 31
0.0
  0
LINE
  5
12A
330
2
100
AcDbEntity
  8
0
  6
Continuous
370
     5
100
AcDbLine
 10
221600.4081127277
 20
135183.0906670269
 30
0.0
 11
221600.4081127277
 21
135863.0906670269
 31
0.0
  0
ARC
  5
12B
330
2
100
AcDbEntity
  8
0
  6
Continuous
370
     5
100
AcDbCircle
 10
222359.9802029911
 20
135166.6937630573
 30
-0.0000000000003609
 40
249.5170602941434
100
AcDbArc
 50
298.2652060905337
 51
349.2848061094871
  0
ARC
  5
12C
330
2
100
AcDbEntity
  8
0
  6
Continuous
370
     5
100
AcDbCircle
 10
222347.9057759435
 20
135202.3681076118
 30
0.0
 40
286.7277581391942
100
AcDbArc
 50
265.2216731602175
 51
296.9453389171701
  0
ARC
  5
12D
330
2
100
AcDbEntity
  8
0
  6
Continuous
370
     5
100
AcDbCircle
 10
222359.9411256269
 20
135166.8084257837
 30
-0.0000000000003609
 40
174.6317273927079
100
AcDbArc
 50
270.0128210822671
 51
345.5022142435747
  0
ARC
  5
12E
330
2
100
AcDbEntity
  8
0
  6
Continuous
370
     5
100
AcDbCircle
 10
222484.9627744684
 20
135067.7548649176
 30
-0.0000000000004497
 40
214.261631727463
100
AcDbArc
 50
192.0319057923011
 51
223.2667817268431
  0
ARC
  5
12F
330
2
100
AcDbEntity
  8
0
  6
Continuous
370
     5
100
AcDbCircle
 10
222479.4373989079
 20
135064.3067917782
 30
-0.0000000000022486
 40
227.7891349603365
100
AcDbArc
 50
190.4245063551113
 51
223.3805720813812
  0
LINE
  5
130
330
2
100
AcDbEntity
  8
0
  6
Continuous
370
     5
100
AcDbLine
 10
222359.9802029911
 20
134992.1767027632
 30
-0.0000000000003609
 11
222284.4734025908
 21
134992.1767027632
 31
-0.0000000000003609
  0
LINE
  5
131
330
2
100
AcDbEntity
  8
0
  6
Continuous
370
     5
100
AcDbLine
 10
222328.8719683834
 20
134920.8384938858
 30
-0.0000000000004396
 11
222313.7605709666
 21
134907.7496865114
 31
-0.0000000000022385
  0
ARC
  5
132
330
2
100
AcDbEntity
  8
0
  6
Continuous
370
     5
100
AcDbCircle
 10
221695.9204416058
 20
135067.7548649176
 30
-0.0000000000004497
 40
214.261631727463
100
AcDbArc
 50
316.7332182731506
 51
347.9680942076876
  0
ARC
  5
133
330
2
100
AcDbEntity
  8
0
  6
Continuous
370
     5
100
AcDbCircle
 10
221701.4458171663
 20
135064.3067917783
 30
-0.0000000000022486
 40
227.7891349603365
100
AcDbArc
 50
316.6194279186127
 51
349.5754936448772
  0
LINE
  5
134
330
2
100
AcDbEntity
  8
0
  6
Continuous
370
     5
100
AcDbLine
 10
221852.0112476908
 20
134920.8384938859
 30
-0.0000000000004396
 11
221867.1226451075
 21
134907.7496865114
 31
-0.0000000000022385
  0
ARC
  5
135
330
2
100
AcDbEntity
  8
0
  6
Continuous
370
     5
100
AcDbCircle
 10
221757.7407804269
 20
135549.3045655332
 30
-0.0000000000004327
 40
632.3497925130194
100
AcDbArc
 50
180.0198514933138
 51
245.4554048662449
  0
ARC
  5
136
330
2
100
AcDbEntity
  8
0
  6
Continuous
370
     5
100
AcDbCircle
 10
221720.6278029331
 20
135447.8992259164
 30
-0.0000000000004826
 40
524.6269370526881
100
AcDbArc
 50
244.9914703588688
 51
262.8233917152318
  0
ARC
  5
137
330
2
100
AcDbEntity
  8
0
  6
Continuous
370
     5
100
AcDbCircle
 10
221812.0392210057
 20
136154.2180187842
 30
-0.0000000000044971
 40
1236.834249033584
100
AcDbArc
 50
262.7130590512507
 51
271.9966954039037
  0
ARC
  5
138
330
2
100
AcDbEntity
  8
0
  6
Continuous
370
     5
100
AcDbCircle
 10
221856.3570774928
 20
138622.7917763073
 30
0.0000000000014245
 40
3630.772856662656
100
AcDbArc
 50
268.0304134354636
 51
270.6324461218399
  0
ARC
  5
139
330
2
100
AcDbEntity
  8
0
  6
Continuous
370
     5
100
AcDbCircle
 10
221746.9837287243
 20
135520.3853427701
 30
0.0000000000004247
 40
526.4470692801757
100
AcDbArc
 50
228.9966870981106
 51
268.3223231964039
  0
LINE
  5
13A
330
2
100
AcDbEntity
  8
0
  6
Continuous
370
     5
100
AcDbLine
 10
221125.2457271259
 20
135549.1051212769
 30
-0.0000000000005628
 11
221125.3867300028
 21
135697.0479492367
 31
-0.0000000000005628
  0
LINE
  5
13B
330
2
100
AcDbEntity
  8
0
  6
Continuous
370
     5
100
AcDbLine
 10
221200.3910249686
 20
135697.0334978925
 30
0.0
 11
221200.3910083574
 21
135548.9475222177
 31
0.0
  0
LINE
  5
13C
330
2
100
AcDbEntity
  8
0
  6
Continuous
370
     5
100
AcDbLine
 10
221125.4081111167
 20
135717.0906670269
 30
0.0
 11
221230.4081098594
 21
135717.0906670269
 31
0.0
  0
LINE
  5
13D
330
2
100
AcDbEntity
  8
0
  6
Continuous
370
     5
100
AcDbLine
 10
221230.4081098594
 20
135717.0906670269
 30
0.0
 11
221230.4081098594
 21
135535.7571633483
 31
0.0
  0
LINE
  5
13E
330
2
100
AcDbEntity
  8
0
  6
Continuous
370
     5
100
AcDbLine
 10
221409.7531225662
 20
135153.0906670271
 30
0.0
 11
221540.4081127277
 21
135153.0906670271
 31
0.0
  0
LINE
  5
13F
330
2
100
AcDbEntity
  8
0
  6
Continuous
370
     5
100
AcDbLine
 10
221125.3867162117
 20
135697.0334978925
 30
-0.0000000000005627
 11
221125.5787823057
 21
135877.0904849726
 31
0.0
  0
LINE
  5
140
330
2
100
AcDbEntity
  8
0
  6
Continuous
370
     5
100
AcDbLine
 10
221160.408110488
 20
135877.0906670269
 30
-0.0000000000003088
 11
221160.408110488
 21
135717.0906670269
 31
0.0
  0
LINE
  5
141
330
2
100
AcDbEntity
  8
0
  6
Continuous
370
     5
100
AcDbLine
 10
221195.4081098594
 20
135877.0906670269
 30
-0.0000000000003089
 11
221195.4081098594
 21
135717.0906670269
 31
0.0
  0
LINE
  5
142
330
2
100
AcDbEntity
  8
0
  6
Continuous
370
     5
100
AcDbLine
 10
221230.4081098594
 20
135877.0906670269
 30
0.0
 11
221230.4081098594
 21
135717.0906670269
 31
-0.0000000000001667
  0
LINE
  5
143
330
2
100
AcDbEntity
  8
0
  6
Continuous
370
     5
100
AcDbLine
 10
222275.4081127277
 20
135123.0906670268
 30
0.0
 11
222275.4081127277
 21
135023.0906670268
 31
0.0
  0
LINE
  5
144
330
2
100
AcDbEntity
  8
0
  6
Continuous
370
     5
100
AcDbLine
 10
222275.4081127277
 20
135023.0906670268
 30
0.0
 11
222255.4081127277
 21
135023.0906670269
 31
0.0
  0
LINE
  5
145
330
2
100
AcDbEntity
  8
0
  6
Continuous
370
     5
100
AcDbLine
 10
222255.4081127277
 20
135023.0906670269
 30
0.0
 11
222255.4081127277
 21
135123.0906670268
 31
0.0
  0
LINE
  5
146
330
2
100
AcDbEntity
  8
0
  6
Continuous
370
     5
100
AcDbLine
 10
221925.4751033466
 20
135123.0906670269
 30
0.0000000000004547
 11
221925.4751033465
 21
135023.0906670269
 31
0.0
  0
LINE
  5
147
330
2
100
AcDbEntity
  8
0
  6
Continuous
370
     5
100
AcDbLine
 10
221905.461619155
 20
135023.3199713832
 30
0.0
 11
221905.4616191551
 21
135123.0906670269
 31
0.0
  0
LINE
  5
148
330
2
100
AcDbEntity
  8
0
  6
Continuous
370
     5
100
AcDbLine
 10
221905.4751033466
 20
135023.0906670269
 30
0.0000000000004769
 11
221925.4751033465
 21
135023.0906670269
 31
0.0000000000004547
  0
LINE
  5
149
330
2
100
AcDbEntity
  8
0
  6
Continuous
370
     5
100
AcDbLine
 10
221925.4751033465
 20
135023.0906670269
 30
0.0
 11
222255.4081127277
 21
135023.0906670268
 31
0.0
  0
LINE
  5
14A
330
2
100
AcDbEntity
  8
0
  6
Continuous
370
     5
100
AcDbLine
 10
222264.4247839679
 20
134989.0906670268
 30
0.0000000000000036
 11
221916.4584321063
 21
134989.0906670269
 31
0.0000000000000036
  0
LINE
  5
14B
330
2
100
AcDbEntity
  8
0
  6
Continuous
370
     5
100
AcDbLine
 10
221901.3451120631
 20
134955.0906670269
 30
0.0000000000030591
 11
222279.5381040111
 21
134955.0906670268
 31
-0.0000000000000269
  0
LINE
  5
14C
330
2
100
AcDbEntity
  8
0
  6
Continuous
370
     5
100
AcDbLine
 10
222302.2987304836
 20
134921.0944244533
 30
0.0000000000000107
 11
221878.4442961021
 21
134920.9211981492
 31
0.0000000000000107
  0
LINE
  5
14D
330
2
100
AcDbEntity
  8
0
  6
Continuous
370
     5
100
AcDbLine
 10
221125.5787823057
 20
135897.0904849726
 30
0.0
 11
221125.5787823058
 21
135981.9260722206
 31
-0.0000000000000753
  0
ARC
  5
14E
330
2
100
AcDbEntity
  8
0
  6
Continuous
370
     5
100
AcDbCircle
 10
221430.3449325242
 20
135973.1996139905
 30
-0.0000000000004773
 40
304.8910582359086
100
AcDbArc
 50
89.99212528545008
 51
178.359881331468
  0
ARC
  5
14F
330
2
100
AcDbEntity
  8
0
  6
Continuous
370
     5
100
AcDbCircle
 10
221430.7924997951
 20
135972.2143133589
 30
-0.0000000000016857
 40
230.8873717745682
100
AcDbArc
 50
91.57153973231663
 51
176.1892130201665
  0
ARC
  5
150
330
2
100
AcDbEntity
  8
0
  6
Continuous
370
     5
100
AcDbCircle
 10
221430.7924997951
 20
135972.2143133589
 30
-0.0000000000016857
 40
200.8873717745681
100
AcDbArc
 50
91.57153973231663
 51
176.1892130201665
  0
LINE
  5
151
330
2
100
AcDbEntity
  8
0
  6
Continuous
370
     5
100
AcDbLine
 10
221200.4156261564
 20
135987.5594929738
 30
-0.0000000000004069
 11
221200.4156261563
 21
135897.0906670269
 31
-0.0000000000000022
  0
LINE
  5
152
330
2
100
AcDbEntity
  8
0
  6
Continuous
370
     5
100
AcDbLine
 10
221424.4603897078
 20
136203.0148394129
 30
-0.0000000000011965
 11
221838.4046950973
 21
136203.0906683295
 31
-0.0000000000005983
  0
LINE
  5
153
330
2
100
AcDbEntity
  8
0
  6
Continuous
370
     5
100
AcDbLine
 10
221838.4046950973
 20
136203.0906683295
 30
-0.0000000000005983
 11
221838.4046950974
 21
136278.0906665554
 31
-0.0000000000014795
  0
LINE
  5
154
330
2
100
AcDbEntity
  8
0
  6
Continuous
370
     5
100
AcDbLine
 10
221838.4046950974
 20
136278.0906665554
 30
-0.0000000000026198
 11
221430.3910289765
 21
136278.0906681586
 31
-0.0000000000013166
  0
LINE
  5
155
330
2
100
AcDbEntity
  8
0
  6
Continuous
370
     5
100
AcDbLine
 10
221838.4046950974
 20
136278.0906665554
 30
-0.0000000000013166
 11
221858.4046950974
 21
136278.0906665554
 31
-0.0000000000013166
  0
LINE
  5
156
330
2
100
AcDbEntity
  8
0
  6
Continuous
370
     5
100
AcDbLine
 10
221858.4046950974
 20
136278.0906664768
 30
0.0
 11
221858.4046950974
 21
136173.0295150733
 31
0.0
  0
LINE
  5
157
330
2
100
AcDbEntity
  8
0
  6
Continuous
370
     5
100
AcDbLine
 10
221858.4046950974
 20
136173.0295150733
 30
0.0
 11
221424.8926947412
 21
136173.0295150734
 31
0.0
  0
LINE
  5
158
330
2
100
AcDbEntity
  8
0
  6
Continuous
370
     5
100
AcDbLine
 10
221230.4081098594
 20
135990.0489519035
 30
0.0
 11
221230.4081098594
 21
135877.0906670269
 31
0.0
  0
LINE
  5
159
330
2
100
AcDbEntity
  8
0
  6
Continuous
370
     5
100
AcDbLine
 10
221125.5787823057
 20
135877.0904849726
 30
0.0
 11
221125.5787823057
 21
135897.0904849726
 31
0.0
  0
LINE
  5
15A
330
2
100
AcDbEntity
  8
0
  6
Continuous
370
     5
100
AcDbLine
 10
222040.4081116276
 20
136278.0906671428
 30
0.0
 11
222040.4081116276
 21
136203.0148394127
 31
0.0
  0
LINE
  5
15B
330
2
100
AcDbEntity
  8
0
  6
Continuous
370
     5
100
AcDbLine
 10
222040.4081116276
 20
136203.0148394127
 30
0.0
 11
222090.3910278369
 21
136203.0906669464
 31
0.0
  0
LINE
  5
15C
330
2
100
AcDbEntity
  8
0
  6
Continuous
370
     5
100
AcDbLine
 10
222090.3910278369
 20
136203.0906669464
 30
0.0
 11
222090.3910278369
 21
135930.0906670269
 31
0.0
  0
LINE
  5
15D
330
2
100
AcDbEntity
  8
0
  6
Continuous
370
     5
100
AcDbLine
 10
222060.4081127277
 20
135930.0906670269
 30
0.0
 11
222060.4081127277
 21
136173.0148394127
 31
0.0
  0
LINE
  5
15E
330
2
100
AcDbEntity
  8
0
  6
Continuous
370
     5
100
AcDbLine
 10
222060.4081127277
 20
136173.0148394127
 30
0.0
 11
222020.4081127278
 21
136173.0295150733
 31
0.0
  0
LINE
  5
15F
330
2
100
AcDbEntity
  8
0
  6
Continuous
370
     5
100
AcDbLine
 10
222020.4081127278
 20
136173.0295150733
 30
0.0
 11
222020.4081127278
 21
136278.0906671428
 31
0.0
  0
LINE
  5
160
330
2
100
AcDbEntity
  8
0
  6
Continuous
370
     5
100
AcDbLine
 10
222020.4081127278
 20
136278.0906665554
 30
-0.0000000000013166
 11
222040.4081116276
 21
136278.0906671428
 31
-0.0000000000013166
  0
LINE
  5
161
330
2
100
AcDbEntity
  8
0
  6
Continuous
370
     5
100
AcDbLine
 10
221858.4046950974
 20
136278.0906665554
 30
-0.000000000000665
 11
222020.4081127278
 21
136278.0906665554
 31
-0.0000000000013166
  0
LINE
  5
162
330
2
100
AcDbEntity
  8
0
  6
Continuous
370
     5
100
AcDbLine
 10
222020.4081127278
 20
136243.090667184
 30
-0.0000000000006339
 11
221858.4046950974
 21
136243.090667184
 31
-0.0000000000006339
  0
LINE
  5
163
330
2
100
AcDbEntity
  8
0
  6
Continuous
370
     5
100
AcDbLine
 10
221858.4046950974
 20
136208.0148394128
 30
-0.000000000001201
 11
222020.4081127278
 21
136208.0906678127
 31
-0.0000000000006028
  0
LINE
  5
164
330
2
100
AcDbEntity
  8
0
  6
Continuous
370
     5
100
AcDbLine
 10
222020.4081127278
 20
136173.0295150733
 30
-0.0000000000005716
 11
221858.4046950974
 21
136173.0148394128
 31
-0.0000000000011433
  0
LINE
  5
165
330
2
100
AcDbEntity
  8
0
  6
Continuous
370
     5
100
AcDbLine
 10
222040.4081127278
 20
136278.0906671428
 30
-0.0000000000013166
 11
222165.391027837
 21
136278.0906671428
 31
-0.0000000000013166
  0
LINE
  5
166
330
2
100
AcDbEntity
  8
0
  6
Continuous
370
     5
100
AcDbLine
 10
222165.391027837
 20
136278.0906671428
 30
0.0
 11
222165.3910278369
 21
135930.0906670269
 31
0.0
  0
LINE
  5
167
330
2
100
AcDbEntity
  8
0
  6
Continuous
370
     5
100
AcDbLine
 10
221540.4081127277
 20
135123.0906670269
 30
0.0
 11
221401.5804030602
 21
135123.0906670269
 31
-0.0000000000000253
  0
LINE
  5
168
330
2
100
AcDbEntity
  8
0
  6
Continuous
370
     5
100
AcDbLine
 10
221125.3867162117
 20
135697.0334978925
 30
0.0
 11
221200.3910249686
 21
135697.0334978925
 31
0.0
  0
LINE
  5
169
330
2
100
AcDbEntity
  8
0
  6
Continuous
370
     5
100
AcDbLine
 10
221125.5787824999
 20
135877.0906670269
 30
0.0
 11
221230.4081098594
 21
135877.0906670269
 31
0.0
  0
LINE
  5
16A
330
2
100
AcDbEntity
  8
0
  6
Continuous
370
     5
100
AcDbLine
 10
221125.5787824999
 20
135897.0906670269
 30
-0.0000000000000178
 11
221200.4156261563
 21
135897.0906670269
 31
-0.0000000000000178
  0
ARC
  5
16B
330
2
100
AcDbEntity
  8
0
  6
Continuous
370
     5
100
AcDbCircle
 10
221763.8756233561
 20
135552.4181398208
 30
0.0000000000000342
 40
533.7276235060622
100
AcDbArc
 50
181.7888501483152
 51
228.4334768170527
  0
ARC
  5
16C
330
2
100
AcDbEntity
  8
0
  6
Continuous
370
     5
100
AcDbCircle
 10
221752.6631767898
 20
135549.4070344899
 30
-0.0000000000000253
 40
552.2723595985077
100
AcDbArc
 50
180.0476723413383
 51
230.5276437483523
  0
LINE
  5
16D
330
2
100
AcDbEntity
  8
0
  6
Continuous
370
     5
100
AcDbLine
 10
222950.4081127277
 20
135123.0906670268
 30
0.0
 11
222795.8461946531
 21
135188.0906670268
 31
0.0
  0
LINE
  5
16E
330
2
100
AcDbEntity
  8
0
  6
Continuous
370
     5
100
AcDbLine
 10
222795.8461946531
 20
135188.0906670268
 30
0.0
 11
222640.4081127277
 21
135123.0906670268
 31
0.0
  0
LINE
  5
16F
330
2
100
AcDbEntity
  8
0
  6
Continuous
370
     5
100
AcDbLine
 10
222046.4909781778
 20
136203.0906669464
 30
0.0
 11
222090.3910278369
 21
136203.0906669464
 31
0.0
  0
LINE
  5
170
330
2
100
AcDbEntity
  8
0
  6
Continuous
370
     5
100
AcDbLine
 10
222090.3910278369
 20
136203.0906669464
 30
0.0
 11
222090.3910278369
 21
135923.0906669464
 31
0.0
  0
LINE
  5
171
330
2
100
AcDbEntity
  8
0
370
     5
100
AcDbLine
 10
222061.1243280642
 20
136203.0906669464
 30
0.0
 11
222071.1243280642
 21
136233.0906669464
 31
0.0
  0
LINE
  5
172
330
2
100
AcDbEntity
  8
0
370
     5
100
AcDbLine
 10
222075.7576779506
 20
136203.0906669464
 30
0.0
 11
222107.9074703878
 21
136251.3153556022
 31
0.0
  0
LINE
  5
173
330
2
100
AcDbEntity
  8
0
370
     5
100
AcDbLine
 10
222090.3910278369
 20
136203.0906669464
 30
0.0
 11
222110.5703445095
 21
136223.2699836189
 31
0.0
  0
LINE
  5
174
330
2
100
AcDbEntity
  8
0
370
     5
100
AcDbLine
 10
222090.3910278369
 20
136179.757333613
 30
0.0
 11
222140.8383253878
 21
136226.0006897013
 31
0.0
  0
LINE
  5
175
330
2
100
AcDbEntity
  8
0
370
     5
100
AcDbLine
 10
222090.3910278369
 20
136156.4240002797
 30
0.0
 11
222120.391027837
 21
136181.4240002797
 31
0.0
  0
LINE
  5
176
330
2
100
AcDbEntity
  8
0
370
     5
100
AcDbLine
 10
222090.3910278369
 20
136133.0906669464
 30
0.0
 11
222139.3759554134
 21
136169.8293626287
 31
0.0
  0
LINE
  5
177
330
2
100
AcDbEntity
  8
0
370
     5
100
AcDbLine
 10
222090.3910278369
 20
136109.757333613
 30
0.0
 11
222120.391027837
 21
136129.757333613
 31
0.0
  0
LINE
  5
178
330
2
100
AcDbEntity
  8
0
370
     5
100
AcDbLine
 10
222090.3910278369
 20
136086.4240002797
 30
0.0
 11
222137.7090431477
 21
136114.0261758776
 31
0.0
  0
LINE
  5
179
330
2
100
AcDbEntity
  8
0
370
     5
100
AcDbLine
 10
222090.3910278369
 20
136063.0906669464
 30
0.0
 11
222120.391027837
 21
136078.0906669464
 31
0.0
  0
LINE
  5
17A
330
2
100
AcDbEntity
  8
0
370
     5
100
AcDbLine
 10
222090.3910278369
 20
136039.757333613
 30
0.0
 11
222138.9319713076
 21
136059.9827267258
 31
0.0
  0
LINE
  5
17B
330
2
100
AcDbEntity
  8
0
370
     5
100
AcDbLine
 10
222090.3910278369
 20
136016.4240002797
 30
0.0
 11
222120.391027837
 21
136026.4240002797
 31
0.0
  0
LINE
  5
17C
330
2
100
AcDbEntity
  8
0
370
     5
100
AcDbLine
 10
222119.324086502
 20
136000.3239316126
 30
0.0
 11
222145.9043405874
 21
136006.968995134
 31
0.0
  0
LINE
  5
17D
330
2
100
AcDbEntity
  8
0
370
     5
100
AcDbLine
 10
222090.3910278369
 20
135969.757333613
 30
0.0
 11
222116.5381713282
 21
135974.1151908616
 31
0.0
  0
LINE
  5
17E
330
2
100
AcDbEntity
  8
0
370
     5
100
AcDbLine
 10
222093.4526454761
 20
135946.679135083
 30
0.0
 11
222136.8234769158
 21
135950.2933710363
 31
0.0
  0
LINE
  5
17F
330
2
100
AcDbEntity
  8
0
  6
Continuous
370
     5
100
AcDbLine
 10
222046.4909781778
 20
136203.0906669464
 30
0.0
 11
222090.3910278369
 21
136203.0906669464
 31
0.0
  0
LINE
  5
180
330
2
100
AcDbEntity
  8
0
  6
Continuous
370
     5
100
AcDbLine
 10
222090.3910278369
 20
136203.0906669464
 30
0.0
 11
222090.3910278369
 21
135923.0906669464
 31
0.0
  0
LINE
  5
181
330
2
100
AcDbEntity
  8
0
370
     5
100
AcDbLine
 10
221725.3019759397
 20
136203.0906683295
 30
-0.0000000000005983
 11
221725.3019759398
 21
136254.0322670112
 31
-0.0000000000005983
  0
LINE
  5
182
330
2
100
AcDbEntity
  8
0
370
     5
100
AcDbLine
 10
221745.3019759398
 20
136203.0906683295
 30
-0.0000000000005983
 11
221745.3019759398
 21
136231.7924439381
 31
-0.0000000000005983
  0
LINE
  5
183
330
2
100
AcDbEntity
  8
0
370
     5
100
AcDbLine
 10
221765.3019759397
 20
136203.0906683295
 30
-0.0000000000005983
 11
221765.3019759397
 21
136254.0322670112
 31
-0.0000000000005983
  0
LINE
  5
184
330
2
100
AcDbEntity
  8
0
370
     5
100
AcDbLine
 10
221785.3019759397
 20
136203.0906683295
 30
-0.0000000000005983
 11
221785.3019759397
 21
136231.7924439381
 31
-0.0000000000005983
  0
LINE
  5
185
330
2
100
AcDbEntity
  8
0
370
     5
100
AcDbLine
 10
221805.3019759397
 20
136203.0906683295
 30
-0.0000000000005983
 11
221805.3019759397
 21
136254.0322670112
 31
-0.0000000000005983
  0
LINE
  5
186
330
2
100
AcDbEntity
  8
0
370
     5
100
AcDbLine
 10
221825.3019759397
 20
136203.0906683295
 30
-0.0000000000005983
 11
221825.3019759398
 21
136231.7924439381
 31
-0.0000000000005983
  0
LINE
  5
187
330
2
100
AcDbEntity
  8
0
370
     5
100
AcDbLine
 10
221699.9278782423
 20
136203.0906683295
 30
-0.0000000000005983
 11
221699.9278782424
 21
136231.7924439381
 31
-0.0000000000005983
  0
LINE
  5
188
330
2
100
AcDbEntity
  8
0
370
     5
100
AcDbLine
 10
221599.9278782423
 20
136203.0906683295
 30
-0.0000000000005983
 11
221599.9278782423
 21
136254.0322670112
 31
-0.0000000000005983
  0
LINE
  5
189
330
2
100
AcDbEntity
  8
0
370
     5
100
AcDbLine
 10
221619.9278782423
 20
136203.0906683295
 30
-0.0000000000005983
 11
221619.9278782424
 21
136231.7924439381
 31
-0.0000000000005983
  0
LINE
  5
18A
330
2
100
AcDbEntity
  8
0
370
     5
100
AcDbLine
 10
221639.9278782423
 20
136203.0906683295
 30
-0.0000000000005983
 11
221639.9278782423
 21
136254.0322670112
 31
-0.0000000000005983
  0
LINE
  5
18B
330
2
100
AcDbEntity
  8
0
370
     5
100
AcDbLine
 10
221659.9278782423
 20
136203.0906683295
 30
-0.0000000000005983
 11
221659.9278782423
 21
136231.7924439381
 31
-0.0000000000005983
  0
LINE
  5
18C
330
2
100
AcDbEntity
  8
0
370
     5
100
AcDbLine
 10
221679.9278782423
 20
136203.0906683295
 30
-0.0000000000005983
 11
221679.9278782424
 21
136254.0322670112
 31
-0.0000000000005983
  0
LINE
  5
18D
330
2
100
AcDbEntity
  8
0
370
     5
100
AcDbLine
 10
221574.5537805449
 20
136203.0906683295
 30
-0.0000000000005983
 11
221574.553780545
 21
136231.7924439381
 31
-0.0000000000005983
  0
LINE
  5
18E
330
2
100
AcDbEntity
  8
0
370
     5
100
AcDbLine
 10
221474.5537805449
 20
136203.0906683295
 30
-0.0000000000005983
 11
221474.553780545
 21
136254.0322670112
 31
-0.0000000000005983
  0
LINE
  5
18F
330
2
100
AcDbEntity
  8
0
370
     5
100
AcDbLine
 10
221494.5537805449
 20
136203.0906683295
 30
-0.0000000000005983
 11
221494.553780545
 21
136231.7924439381
 31
-0.0000000000005983
  0
LINE
  5
190
330
2
100
AcDbEntity
  8
0
370
     5
100
AcDbLine
 10
221514.5537805449
 20
136203.0906683295
 30
-0.0000000000005983
 11
221514.5537805449
 21
136254.0322670112
 31
-0.0000000000005983
  0
LINE
  5
191
330
2
100
AcDbEntity
  8
0
370
     5
100
AcDbLine
 10
221534.5537805449
 20
136203.0906683295
 30
-0.0000000000005983
 11
221534.553780545
 21
136231.7924439381
 31
-0.0000000000005983
  0
LINE
  5
192
330
2
100
AcDbEntity
  8
0
370
     5
100
AcDbLine
 10
221554.5537805449
 20
136203.0906683295
 30
-0.0000000000005983
 11
221554.553780545
 21
136254.0322670112
 31
-0.0000000000005983
  0
LINE
  5
193
330
2
100
AcDbEntity
  8
0
370
     5
100
AcDbLine
 10
221449.1796828475
 20
136203.0906683295
 30
-0.0000000000005983
 11
221449.1796828475
 21
136231.7924439381
 31
-0.0000000000005983
  0
LINE
  5
194
330
2
100
AcDbEntity
  8
0
370
     5
100
AcDbLine
 10
221409.1796828475
 20
136203.0906683295
 30
-0.0000000000005983
 11
221409.1796828475
 21
136231.7924439381
 31
-0.0000000000005983
  0
LINE
  5
195
330
2
100
AcDbEntity
  8
0
370
     5
100
AcDbLine
 10
221429.1796828475
 20
136203.0906683295
 30
-0.0000000000005983
 11
221429.1796828475
 21
136254.0322670112
 31
-0.0000000000005983
  0
LINE
  5
196
330
2
100
AcDbEntity
  8
0
370
     5
100
AcDbLine
 10
221394.9677025977
 20
136200.305440654
 30
1.849902597761841
 11
221384.0489028027
 21
136251.6743549293
 31
-39.28804306489544
  0
LINE
  5
197
330
2
100
AcDbEntity
  8
0
370
     5
100
AcDbLine
 10
221368.1893240427
 20
136195.5717303436
 30
-0.0000000000003304
 11
221358.9188142115
 21
136224.1034258325
 31
-23.50000000000168
  0
LINE
  5
198
330
2
100
AcDbEntity
  8
0
370
     5
100
AcDbLine
 10
221342.7822153805
 20
136185.818855094
 30
-0.0000000000016858
 11
221322.3219985367
 21
136231.7732545272
 31
-39.40429300828541
  0
LINE
  5
199
330
2
100
AcDbEntity
  8
0
370
     5
100
AcDbLine
 10
221318.5337425802
 20
136173.4636410909
 30
-0.0000000000016787
 11
221303.5337425802
 21
136199.4444032044
 31
-23.50000000000168
  0
LINE
  5
19A
330
2
100
AcDbEntity
  8
0
370
     5
100
AcDbLine
 10
221295.7095769841
 20
136158.6414546444
 30
-0.0000000000016858
 11
221265.124399883
 21
136200.7383394409
 31
-40.76044547869055
  0
LINE
  5
19B
330
2
100
AcDbEntity
  8
0
370
     5
100
AcDbLine
 10
221274.5597849269
 20
136141.514690731
 30
-0.0000000000016858
 11
221254.4858667361
 21
136163.8090354954
 31
-23.50000000000168
  0
LINE
  5
19C
330
2
100
AcDbEntity
  8
0
370
     5
100
AcDbLine
 10
221255.316087956
 20
136122.2709937601
 30
-0.0000000000016858
 11
221216.9585471771
 21
136156.8082786069
 31
-40.43187713446267
  0
LINE
  5
19D
330
2
100
AcDbEntity
  8
0
370
     5
100
AcDbLine
 10
221238.1893240427
 20
136101.1212017029
 30
-0.0000000000016858
 11
221213.9188142115
 21
136118.7547592717
 31
-23.50000000000168
  0
LINE
  5
19E
330
2
100
AcDbEntity
  8
0
370
     5
100
AcDbLine
 10
221223.3671375963
 20
136078.2970361069
 30
-0.0000000000015081
 11
221180.5986227916
 21
136102.9894496422
 31
-38.68478120532721
  0
LINE
  5
19F
330
2
100
AcDbEntity
  8
0
370
     5
100
AcDbLine
 10
221214.4176514824
 20
136052.7804567606
 30
-0.0000000000016857
 11
221187.0112877532
 21
136064.9825560529
 31
-23.50000000000168
  0
LINE
  5
1A0
330
2
100
AcDbEntity
  8
0
370
     5
100
AcDbLine
 10
221204.6647762328
 20
136027.3733480985
 30
0.0000000000040643
 11
221159.5817903551
 21
136042.0216981751
 31
-37.13239434155307
  0
LINE
  5
1A1
330
2
100
AcDbEntity
  8
0
370
     5
100
AcDbLine
 10
221201.997218465
 20
136003.2255643181
 30
-18.28344243722725
 11
221176.7528219436
 21
136008.5914264441
 31
-38.50000000000023
  0
LINE
  5
1A2
330
2
100
AcDbEntity
  8
0
370
     5
100
AcDbLine
 10
221199.931065961
 20
135975.6750666048
 30
-16.50351588035058
 11
221149.4515185846
 21
135980.9806808283
 31
-56.26363810162994
  0
LINE
  5
1A3
330
2
100
AcDbEntity
  8
0
370
     5
100
AcDbLine
 10
221200.4156261564
 20
135948.2970361069
 30
-0.0000000000002309
 11
221170.4156261564
 21
135948.2970361069
 31
-38.50000000000023
  0
LINE
  5
1A4
330
2
100
AcDbEntity
  8
0
370
     5
100
AcDbLine
 10
221200.4156261564
 20
135924.5220343403
 30
-15.00000000000023
 11
221145.3646653746
 21
135924.5220343403
 31
-58.1232526123948
  0
LINE
  5
1A5
330
2
100
AcDbEntity
  8
0
370
     5
100
AcDbLine
 10
221200.4156261563
 20
135900.7470325736
 30
-15.00000000000023
 11
221170.4156261564
 21
135900.7470325736
 31
-38.50000000000023
  0
LINE
  5
1A6
330
2
100
AcDbEntity
  8
0
370
     5
100
AcDbLine
 10
221200.4156261563
 20
135644.9304198258
 30
-0.0000000000002309
 11
221170.4156261564
 21
135644.9304198258
 31
-38.50000000000023
  0
LINE
  5
1A7
330
2
100
AcDbEntity
  8
0
370
     5
100
AcDbLine
 10
221200.4156261563
 20
135668.7054215925
 30
-15.00000000000023
 11
221145.3646653746
 21
135668.7054215925
 31
-58.1232526123948
  0
LINE
  5
1A8
330
2
100
AcDbEntity
  8
0
370
     5
100
AcDbLine
 10
221200.4156261563
 20
135692.4804233591
 30
-15.00000000000023
 11
221170.4156261564
 21
135692.4804233591
 31
-38.50000000000023
  0
LINE
  5
1A9
330
2
100
AcDbEntity
  8
0
370
     5
100
AcDbLine
 10
221200.4156208226
 20
135597.3804162925
 30
-0.0000000000002309
 11
221170.4156208226
 21
135597.3804162925
 31
-38.50000000000023
  0
LINE
  5
1AA
330
2
100
AcDbEntity
  8
0
370
     5
100
AcDbLine
 10
221200.4156208226
 20
135621.1554180591
 30
-15.00000000000023
 11
221145.3646600408
 21
135621.1554180591
 31
-58.1232526123948
  0
LINE
  5
1AB
330
2
100
AcDbEntity
  8
0
370
     5
100
AcDbLine
 10
221200.4402225211
 20
135549.8304127592
 30
-0.0000000000004619
 11
221170.4402225211
 21
135549.8304127592
 31
-38.50000000000046
  0
LINE
  5
1AC
330
2
100
AcDbEntity
  8
0
370
     5
100
AcDbLine
 10
221200.4402225211
 20
135573.6054145258
 30
-15.00000000000046
 11
221145.3892617393
 21
135573.6054145258
 31
-58.12325261239504
  0
LINE
  5
1AD
330
2
100
AcDbEntity
  8
0
370
     5
100
AcDbLine
 10
221200.415610155
 20
135526.0554109925
 30
-15.00000000000023
 11
221145.3646493732
 21
135526.0554109925
 31
-58.1232526123948
  0
LINE
  5
1AE
330
2
100
AcDbEntity
  8
0
370
     5
100
AcDbLine
 10
222322.2268027909
 20
134992.1767027632
 30
-0.0000000000003609
 11
222345.5780983554
 21
134941.5151404343
 31
-0.0000000000003609
  0
LINE
  5
1AF
330
2
100
AcDbEntity
  8
0
370
     5
100
AcDbLine
 10
222356.0546208592
 20
134992.1767027632
 30
-0.0000000000003609
 11
222362.9685298933
 21
134962.1767027632
 31
-0.0000000000003609
  0
LINE
  5
1B0
330
2
100
AcDbEntity
  8
0
370
     5
100
AcDbLine
 10
222388.0148518031
 20
134994.4480297795
 30
-0.0000000000003609
 11
222388.0148518031
 21
134944.7539438702
 31
-0.0000000000003609
  0
LINE
  5
1B1
330
2
100
AcDbEntity
  8
0
370
     5
100
AcDbLine
 10
222408.4083377294
 20
134999.0372436243
 30
-0.0000000000003609
 11
222413.8265385347
 21
134964.8280700831
 31
-0.0000000000003609
  0
LINE
  5
1B2
330
2
100
AcDbEntity
  8
0
370
     5
100
AcDbLine
 10
222427.6428661041
 20
135005.8341590561
 30
-0.0000000000003609
 11
222443.8626307744
 21
134955.9148563534
 31
-0.0000000000003609
  0
LINE
  5
1B3
330
2
100
AcDbEntity
  8
0
370
     5
100
AcDbLine
 10
222445.6598443454
 20
135014.6619783279
 30
-0.0000000000003609
 11
222462.9232842601
 21
134980.7805697902
 31
-0.0000000000003609
  0
LINE
  5
1B4
330
2
100
AcDbEntity
  8
0
370
     5
100
AcDbLine
 10
222462.4102880535
 20
135025.4001128607
 30
-0.0000000000003609
 11
222494.5851831808
 21
134981.1151689144
 31
-0.0000000000003609
  0
LINE
  5
1B5
330
2
100
AcDbEntity
  8
0
370
     5
100
AcDbLine
 10
222477.8342076254
 20
135037.977290459
 30
-0.0000000000003609
 11
222504.6874706988
 21
135011.1240273855
 31
-0.0000000000003609
  0
LINE
  5
1B6
330
2
100
AcDbEntity
  8
0
370
     5
100
AcDbLine
 10
222488.73913279
 20
135048.8791522214
 30
-0.0000000000003609
 11
222527.8157734953
 21
135020.4883108973
 31
-0.0000000000003609
  0
LINE
  5
1B7
330
2
100
AcDbEntity
  8
0
370
     5
100
AcDbLine
 10
222501.8832794084
 20
135065.0800364717
 30
-0.0000000000003609
 11
222530.242032063
 21
135050.6305302782
 31
-0.0000000000003609
  0
LINE
  5
1B8
330
2
100
AcDbEntity
  8
0
370
     5
100
AcDbLine
 10
222511.6367557567
 20
135080.2944037313
 30
-0.0000000000003609
 11
222561.5358064432
 21
135064.0812193399
 31
-0.0000000000003609
  0
LINE
  5
1B9
330
2
100
AcDbEntity
  8
0
370
     5
100
AcDbLine
 10
222521.0550382073
 20
135099.4396838838
 30
-0.0000000000003609
 11
222565.531624572
 21
135092.3952846449
 31
-0.0000000000003609
  0
LINE
  5
1BA
330
2
100
AcDbEntity
  8
0
370
     5
100
AcDbLine
 10
222528.6186015384
 20
135118.0906670268
 30
-0.0000000000003609
 11
222574.0137776721
 21
135118.0906670268
 31
-0.0000000000003609
  0
LINE
  5
1BB
330
2
100
AcDbEntity
  8
0
370
     5
100
AcDbLine
 10
221838.5523463198
 20
134992.2401101501
 30
0.0000000000014245
 11
221838.5523463198
 21
134941.2985114684
 31
0.0000000000014245
  0
LINE
  5
1BC
330
2
100
AcDbEntity
  8
0
370
     5
100
AcDbLine
 10
221818.5523463198
 20
134992.2401101501
 30
0.0000000000014245
 11
221818.5523463198
 21
134963.5383345415
 31
0.0000000000014245
  0
LINE
  5
1BD
330
2
100
AcDbEntity
  8
0
370
     5
100
AcDbLine
 10
221798.5523463198
 20
134992.2401101501
 30
0.0000000000014245
 11
221798.5523463198
 21
134941.2985114684
 31
0.0000000000014245
  0
LINE
  5
1BE
330
2
100
AcDbEntity
  8
0
370
     5
100
AcDbLine
 10
221778.5523463198
 20
134992.2401101501
 30
0.0000000000014245
 11
221778.5523463198
 21
134963.5383345415
 31
0.0000000000014245
  0
LINE
  5
1BF
330
2
100
AcDbEntity
  8
0
370
     5
100
AcDbLine
 10
221758.5523463197
 20
134993.3364767839
 30
0.0000000000014245
 11
221758.5523463197
 21
134941.2985114684
 31
0.0000000000014245
  0
LINE
  5
1C0
330
2
100
AcDbEntity
  8
0
370
     5
100
AcDbLine
 10
221863.9264440172
 20
134992.2401101501
 30
0.0000000000014245
 11
221863.9264440172
 21
134963.5383345415
 31
0.0000000000014245
  0
LINE
  5
1C1
330
2
100
AcDbEntity
  8
0
370
     5
100
AcDbLine
 10
221708.0507876548
 20
134995.3798734144
 30
0.0000000000014245
 11
221708.0507876548
 21
134941.2985114684
 31
0.0000000000014245
  0
LINE
  5
1C2
330
2
100
AcDbEntity
  8
0
370
     5
100
AcDbLine
 10
221688.0507876548
 20
134997.2472871761
 30
0.0000000000014245
 11
221688.0507876548
 21
134963.5383345415
 31
0.0000000000014245
  0
LINE
  5
1C3
330
2
100
AcDbEntity
  8
0
370
     5
100
AcDbLine
 10
221733.4248853522
 20
134994.1129090249
 30
0.0000000000014245
 11
221733.4248853522
 21
134963.5383345415
 31
0.0000000000014245
  0
LINE
  5
1C4
330
2
100
AcDbEntity
  8
0
370
     5
100
AcDbLine
 10
221664.0231405674
 20
135000.5160730816
 30
0.0000000000004247
 11
221660.5817216413
 21
134948.5065519107
 31
-56.45015012238303
  0
LINE
  5
1C5
330
2
100
AcDbEntity
  8
0
370
     5
100
AcDbLine
 10
221638.6986254935
 20
135005.1952291499
 30
-13.83324872286602
 11
221634.7519484307
 21
134973.9540633086
 31
-38.49999999999957
  0
LINE
  5
1C6
330
2
100
AcDbEntity
  8
0
370
     5
100
AcDbLine
 10
221613.9530211285
 20
135011.02363672
 30
3.652550678143841
 11
221603.9070535305
 21
134958.3608303211
 31
-54.35188153330159
  0
LINE
  5
1C7
330
2
100
AcDbEntity
  8
0
370
     5
100
AcDbLine
 10
221589.6433924718
 20
135018.0004949277
 30
6.265978320334781
 11
221580.9684474609
 21
134984.2138148296
 31
-38.49999999999957
  0
LINE
  5
1C8
330
2
100
AcDbEntity
  8
0
370
     5
100
AcDbLine
 10
221565.793069022
 20
135026.1015562766
 30
-10.2933369450208
 11
221549.0140095202
 21
134974.4609210789
 31
-52.82690904275543
  0
LINE
  5
1C9
330
2
100
AcDbEntity
  8
0
370
     5
100
AcDbLine
 10
221542.4247096475
 20
135035.3058395255
 30
8.66668002736668
 11
221528.8949332943
 21
135001.1335252344
 31
-38.49999999999957
  0
LINE
  5
1CA
330
2
100
AcDbEntity
  8
0
370
     5
100
AcDbLine
 10
221519.5609152265
 20
135045.5955148942
 30
-9.425388079823949
 11
221497.6911684062
 21
134999.1199371814
 31
-49.66055689922936
  0
LINE
  5
1CB
330
2
100
AcDbEntity
  8
0
370
     5
100
AcDbLine
 10
221497.224815724
 20
135056.9557341663
 30
-9.439767373790632
 11
221479.3526363564
 21
135024.4463605825
 31
-38.49999999999957
  0
LINE
  5
1CC
330
2
100
AcDbEntity
  8
0
370
     5
100
AcDbLine
 10
221475.4406316616
 20
135069.3744081007
 30
7.483957252976717
 11
221447.7857728438
 21
135025.7973235007
 31
-50.18213919105688
  0
LINE
  5
1CD
330
2
100
AcDbEntity
  8
0
370
     5
100
AcDbLine
 10
221454.2342098491
 20
135082.8419324072
 30
-10.36520500552801
 11
221433.1228682652
 21
135053.7846635342
 31
-38.49999999999957
  0
LINE
  5
1CE
330
2
100
AcDbEntity
  8
0
370
     5
100
AcDbLine
 10
221433.5871456598
 20
135097.3852263668
 30
4.84807723858865
 11
221398.4788719863
 21
135053.8826006283
 31
-52.19110786576774
  0
LINE
  5
1CF
330
2
100
AcDbEntity
  8
0
370
     5
100
AcDbLine
 10
221298.0597820866
 20
135235.8141252893
 30
-0.0000000000000249
 11
221261.8937891693
 21
135201.8519973548
 31
-38.86316464063718
  0
LINE
  5
1D0
330
2
100
AcDbEntity
  8
0
370
     5
100
AcDbLine
 10
221283.9896640146
 20
135257.2599865852
 30
2.843533234454199
 11
221258.0772709696
 21
135235.8233907659
 31
-23.50000000000003
  0
LINE
  5
1D1
330
2
100
AcDbEntity
  8
0
370
     5
100
AcDbLine
 10
221270.6345162701
 20
135279.8645895687
 30
-0.0000000000000259
 11
221233.3333765707
 21
135252.763725234
 31
-51.1169497069574
  0
LINE
  5
1D2
330
2
100
AcDbEntity
  8
0
370
     5
100
AcDbLine
 10
221256.2982782324
 20
135300.959723238
 30
-15.00000000000002
 11
221230.9684404675
 21
135284.8849193886
 31
-38.50000000000003
  0
LINE
  5
1D3
330
2
100
AcDbEntity
  8
0
370
     5
100
AcDbLine
 10
221247.4265363285
 20
135326.3808111171
 30
-17.4276848373236
 11
221205.6966036089
 21
135303.4395864687
 31
-54.73020465314791
  0
LINE
  5
1D4
330
2
100
AcDbEntity
  8
0
370
     5
100
AcDbLine
 10
221237.5919323722
 20
135350.1424557244
 30
-1.377411765305448
 11
221211.4182787937
 21
135337.8260692416
 31
-38.5
  0
LINE
  5
1D5
330
2
100
AcDbEntity
  8
0
370
     5
100
AcDbLine
 10
221228.4336203983
 20
135374.007271974
 30
0.0
 11
221181.3762246649
 21
135354.6581421239
 31
-51.31238769676214
  0
LINE
  5
1D6
330
2
100
AcDbEntity
  8
0
370
     5
100
AcDbLine
 10
221219.7939280532
 20
135398.0049406477
 30
-15.0
 11
221191.2622325643
 21
135388.7344308165
 31
-38.5
  0
LINE
  5
1D7
330
2
100
AcDbEntity
  8
0
370
     5
100
AcDbLine
 10
221212.6781102508
 20
135422.4977461749
 30
-15.0
 11
221161.4079059997
 21
135410.5259967846
 31
-52.70909409625756
  0
LINE
  5
1D8
330
2
100
AcDbEntity
  8
0
370
     5
100
AcDbLine
 10
221207.1142498731
 20
135447.3890266421
 30
-15.0
 11
221170.3494613619
 21
135440.3757681512
 31
-44.31839369027442
  0
LINE
  5
1D9
330
2
100
AcDbEntity
  8
0
370
     5
100
AcDbLine
 10
221203.1243049353
 20
135472.580547537
 30
-15.0
 11
221154.7883408528
 21
135466.4742952377
 31
-53.16410724939787
  0
LINE
  5
1DA
330
2
100
AcDbEntity
  8
0
370
     5
100
AcDbLine
 10
221200.724021927
 20
135497.9728894352
 30
-15.0
 11
221170.7832200742
 21
135496.0891738492
 31
-38.5
  0
LINE
  5
1DB
330
2
100
AcDbEntity
  8
0
370
     5
100
AcDbLine
 10
221380.6207468188
 20
135141.2536448461
 30
-0.0000000000000249
 11
221356.5618408145
 21
135116.6137352815
 31
-26.09555393288388
  0
LINE
  5
1DC
330
2
100
AcDbEntity
  8
0
370
     5
100
AcDbLine
 10
221358.7113994782
 20
135162.3582567764
 30
-0.0000000000000249
 11
221327.1475105753
 21
135125.8861368038
 31
-33.05657676566041
  0
LINE
  5
1DD
330
2
100
AcDbEntity
  8
0
370
     5
100
AcDbLine
 10
221341.6421020448
 20
135180.5351932063
 30
-0.0000000000000254
 11
221324.6078131065
 21
135163.4773948006
 31
-19.25000000000001
  0
LINE
  5
1DE
330
2
100
AcDbEntity
  8
0
370
     5
100
AcDbLine
 10
221327.2485081501
 20
135197.2321931359
 30
-0.0000000000000253
 11
221284.036446942
 21
135162.7443398047
 31
-57.03918510435642
  0
LINE
  5
1DF
330
2
100
AcDbEntity
  8
0
370
     5
100
AcDbLine
 10
221311.9308677793
 20
135215.3395416334
 30
-0.6229786084220859
 11
221289.990197949
 21
135196.5230545161
 31
-28.75777360289365
  0
LINE
  5
1E0
330
2
100
AcDbEntity
  8
0
370
     5
100
AcDbLine
 10
221414.9176037754
 20
135111.8775638783
 30
-10.36520500552801
 11
221393.8062621917
 21
135082.8202950053
 31
-38.49999999999957
  0
LINE
  5
1E1
330
2
100
AcDbEntity
  8
0
370
     5
100
AcDbLine
 10
221396.6472889381
 20
135127.2015788482
 30
-0.0000000000000253
 11
221365.2529447424
 21
135083.990971092
 31
-41.83881135291628
  0
LINE
  5
1E2
102
{ACAD_REACTORS
330
116
102
}
330
2
100
AcDbEntity
  8
0
  6
Continuous
370
     5
100
AcDbLine
 10
222695.4081127276
 20
135188.0906670268
 30
0.0
 11
222695.4081127276
 21
135248.0906670268
 31
0.0
  0
LINE
  5
1E3
330
2
100
AcDbEntity
  8
0
370
     5
100
AcDbLine
 10
222695.4081127276
 20
135188.0906670268
 30
0.0
 11
222930.4081127277
 21
135188.0906670268
 31
0.0
  0
LINE
  5
1E4
330
2
100
AcDbEntity
  8
0
370
     5
100
AcDbLine
 10
222695.4081127276
 20
135248.0906670268
 30
0.0
 11
222930.4081127277
 21
135248.0906670268
 31
0.0
  0
LINE
  5
1E5
330
2
100
AcDbEntity
  8
0
370
     5
100
AcDbLine
 10
222035.4081127277
 20
135123.0906670269
 30
0.0
 11
222145.4081127276
 21
135123.0906670269
 31
0.0
  0
LINE
  5
1E6
330
2
100
AcDbEntity
  8
0
370
     5
100
AcDbLine
 10
222035.4081127277
 20
135183.0906670269
 30
0.0
 11
222145.4081127276
 21
135183.0906670269
 31
0.0
  0
LINE
  5
1E7
330
2
100
AcDbEntity
  8
0
 62
     1
370
     5
100
AcDbLine
 10
220928.0061441432
 20
135153.0906670269
 30
0.0
 11
220928.0061441432
 21
135893.0906670269
 31
0.0
  0
LINE
  5
1E8
330
2
100
AcDbEntity
  8
0
 62
     1
370
     5
100
AcDbLine
 10
222960.4081127278
 20
136521.8833250217
 30
0.0
 11
221570.4081127278
 21
136521.8833250218
 31
0.0
  0
LINE
  5
1E9
330
2
100
AcDbEntity
  8
0
 62
     1
370
     5
100
AcDbLine
 10
222610.4081127278
 20
136357.6239095535
 30
0.0
 11
221570.4081127278
 21
136357.6239095537
 31
0.0
  0
LINE
  5
1EA
330
2
100
AcDbEntity
  8
0
 62
     1
370
     5
100
AcDbLine
 10
222960.4081127278
 20
136357.6239095535
 30
0.0
 11
222670.4081127278
 21
136357.6239095535
 31
0.0
  0
LINE
  5
1EB
330
2
100
AcDbEntity
  8
0
 62
     1
370
     5
100
AcDbLine
 10
219871.7723456018
 20
135153.090667027
 30
0.0
 11
219871.7723456018
 21
135893.090667027
 31
0.0
  0
LINE
  5
1EC
330
2
100
AcDbEntity
  8
0
 62
     1
370
     5
100
AcDbLine
 10
217839.3703770174
 20
136521.8833250219
 30
0.0
 11
219229.3703770173
 21
136521.8833250219
 31
0.0
  0
LINE
  5
1ED
330
2
100
AcDbEntity
  8
0
 62
     1
370
     5
100
AcDbLine
 10
218189.3703770174
 20
136357.6239095538
 30
0.0
 11
219229.3703770173
 21
136357.6239095538
 31
0.0
  0
LINE
  5
1EE
330
2
100
AcDbEntity
  8
0
 62
     1
370
     5
100
AcDbLine
 10
217839.3703770174
 20
136357.6239095538
 30
0.0
 11
218129.3703770174
 21
136357.6239095538
 31
0.0
  0
TEXT
  5
1EF
330
2
100
AcDbEntity
  8
0
 62
   140
370
     5
100
AcDbText
 10
220888.0061441432
 20
135420.2335241698
 30
0.0
 40
80.0
  1
800
 50
90.0
 41
0.9
  7
ROMANS
100
AcDbText
  0
LINE
  5
1F1
330
2
100
AcDbEntity
  8
0
 62
     1
370
     5
100
AcDbLine
 10
220961.0061441432
 20
135923.0906670269
 30
0.0
 11
220895.0061441433
 21
135923.0906670269
 31
0.0
  0
LWPOLYLINE
  5
1F2
330
2
100
AcDbEntity
  8
0
 62
     1
370
     5
100
AcDbPolyline
 90
        2
 70
     0
 43
9.000000000000001
 10
220949.2193475789
 20
135901.8774635913
 10
220906.7929407076
 20
135944.3038704625
  0
LINE
  5
1F3
330
2
100
AcDbEntity
  8
0
 62
     1
370
     5
100
AcDbLine
 10
220928.0061441432
 20
135959.0906670269
 30
0.0
 11
220928.0061441432
 21
135887.0906670269
 31
0.0
  0
LINE
  5
1F4
330
2
100
AcDbEntity
  8
0
 62
     1
370
     5
100
AcDbLine
 10
220895.0061441433
 20
135123.0906670269
 30
0.0
 11
220961.0061441432
 21
135123.0906670269
 31
0.0
  0
LWPOLYLINE
  5
1F5
330
2
100
AcDbEntity
  8
0
 62
     1
370
     5
100
AcDbPolyline
 90
        2
 70
     0
 43
9.000000000000001
 10
220906.7929407076
 20
135144.3038704625
 10
220949.2193475789
 20
135101.8774635913
  0
LINE
  5
1F6
330
2
100
AcDbEntity
  8
0
 62
     1
370
     5
100
AcDbLine
 10
220928.0061441432
 20
135087.0906670269
 30
0.0
 11
220928.0061441432
 21
135159.0906670269
 31
0.0
  0
TEXT
  5
1F7
330
2
100
AcDbEntity
  8
0
 62
   140
370
     5
100
AcDbText
 10
222123.1223984421
 20
136561.8833250217
 30
0.0
 40
80.0
  1
1450
 50
359.9999999999941
 41
0.9
  7
ROMANS
100
AcDbText
  0
LINE
  5
1F8
330
2
100
AcDbEntity
  8
0
 62
     1
370
     5
100
AcDbLine
 10
221540.4081127278
 20
136554.8833250218
 30
0.0
 11
221540.4081127278
 21
136488.8833250218
 31
0.0
  0
LWPOLYLINE
  5
1F9
330
2
100
AcDbEntity
  8
0
 62
     1
370
     5
100
AcDbPolyline
 90
        2
 70
     0
 43
9.000000000000001
 10
221561.6213161634
 20
136543.0965284574
 10
221519.1949092922
 20
136500.6701215862
  0
LINE
  5
1FA
330
2
100
AcDbEntity
  8
0
 62
     1
370
     5
100
AcDbLine
 10
221504.4081127278
 20
136521.8833250218
 30
0.0
 11
221576.4081127278
 21
136521.8833250218
 31
0.0
  0
LINE
  5
1FB
330
2
100
AcDbEntity
  8
0
 62
     1
370
     5
100
AcDbLine
 10
222990.4081127278
 20
136488.8833250217
 30
0.0
 11
222990.4081127278
 21
136554.8833250217
 31
0.0
  0
LWPOLYLINE
  5
1FC
330
2
100
AcDbEntity
  8
0
 62
     1
370
     5
100
AcDbPolyline
 90
        2
 70
     0
 43
9.000000000000001
 10
222969.1949092922
 20
136500.6701215861
 10
223011.6213161634
 20
136543.0965284573
  0
LINE
  5
1FD
330
2
100
AcDbEntity
  8
0
 62
     1
370
     5
100
AcDbLine
 10
223026.4081127278
 20
136521.8833250217
 30
0.0
 11
222954.4081127278
 21
136521.8833250217
 31
0.0
  0
TEXT
  5
1FE
330
2
100
AcDbEntity
  8
0
 62
   140
370
     5
100
AcDbText
 10
221948.1223984421
 20
136397.6239095536
 30
0.0
 40
80.0
  1
1100
 50
359.9999999999941
 41
0.9
  7
ROMANS
100
AcDbText
  0
LINE
  5
1FF
330
2
100
AcDbEntity
  8
0
 62
     1
370
     5
100
AcDbLine
 10
221540.4081127278
 20
136390.6239095536
 30
0.0
 11
221540.4081127278
 21
136324.6239095536
 31
0.0
  0
LWPOLYLINE
  5
200
330
2
100
AcDbEntity
  8
0
 62
     1
370
     5
100
AcDbPolyline
 90
        2
 70
     0
 43
9.000000000000001
 10
221561.6213161634
 20
136378.8371129892
 10
221519.1949092922
 20
136336.4107061181
  0
LINE
  5
201
330
2
100
AcDbEntity
  8
0
 62
     1
370
     5
100
AcDbLine
 10
221504.4081127278
 20
136357.6239095537
 30
0.0
 11
221576.4081127278
 21
136357.6239095537
 31
0.0
  0
LINE
  5
202
330
2
100
AcDbEntity
  8
0
 62
     1
370
     5
100
AcDbLine
 10
222640.4081127278
 20
136324.6239095535
 30
0.0
 11
222640.4081127278
 21
136390.6239095535
 31
0.0
  0
LWPOLYLINE
  5
203
330
2
100
AcDbEntity
  8
0
 62
     1
370
     5
100
AcDbPolyline
 90
        2
 70
     0
 43
9.000000000000001
 10
222619.1949092922
 20
136336.4107061179
 10
222661.6213161634
 20
136378.8371129891
  0
LINE
  5
204
330
2
100
AcDbEntity
  8
0
 62
     1
370
     5
100
AcDbLine
 10
222676.4081127278
 20
136357.6239095535
 30
0.0
 11
222604.4081127278
 21
136357.6239095535
 31
0.0
  0
TEXT
  5
205
330
2
100
AcDbEntity
  8
0
 62
   140
370
     5
100
AcDbText
 10
222712.5509698707
 20
136397.6239095535
 30
0.0
 40
80.0
  1
350
 50
359.9999999999941
 41
0.9
  7
ROMANS
100
AcDbText
  0
LINE
  5
206
330
2
100
AcDbEntity
  8
0
 62
     1
370
     5
100
AcDbLine
 10
222640.4081127278
 20
136390.6239095535
 30
0.0
 11
222640.4081127278
 21
136324.6239095535
 31
0.0
  0
LWPOLYLINE
  5
207
330
2
100
AcDbEntity
  8
0
 62
     1
370
     5
100
AcDbPolyline
 90
        2
 70
     0
 43
9.000000000000001
 10
222661.6213161634
 20
136378.8371129891
 10
222619.1949092922
 20
136336.4107061179
  0
LINE
  5
208
330
2
100
AcDbEntity
  8
0
 62
     1
370
     5
100
AcDbLine
 10
222604.4081127278
 20
136357.6239095535
 30
0.0
 11
222676.4081127278
 21
136357.6239095535
 31
0.0
  0
LINE
  5
209
330
2
100
AcDbEntity
  8
0
 62
     1
370
     5
100
AcDbLine
 10
222990.4081127278
 20
136324.6239095535
 30
0.0
 11
222990.4081127278
 21
136390.6239095535
 31
0.0
  0
LWPOLYLINE
  5
20A
330
2
100
AcDbEntity
  8
0
 62
     1
370
     5
100
AcDbPolyline
 90
        2
 70
     0
 43
9.000000000000001
 10
222969.1949092922
 20
136336.4107061179
 10
223011.6213161634
 20
136378.8371129891
  0
LINE
  5
20B
330
2
100
AcDbEntity
  8
0
 62
     1
370
     5
100
AcDbLine
 10
223026.4081127278
 20
136357.6239095535
 30
0.0
 11
222954.4081127278
 21
136357.6239095535
 31
0.0
  0
TEXT
  5
20C
330
2
100
AcDbEntity
  8
0
 62
   140
370
     5
100
AcDbText
 10
219831.7723456018
 20
135420.23352417
 30
0.0
 40
80.0
  1
800
 50
90.0
 41
0.9
  7
ROMANS
100
AcDbText
  0
LINE
  5
20D
330
2
100
AcDbEntity
  8
0
 62
     1
370
     5
100
AcDbLine
 10
219904.7723456018
 20
135923.090667027
 30
0.0
 11
219838.7723456018
 21
135923.090667027
 31
0.0
  0
LWPOLYLINE
  5
20E
330
2
100
AcDbEntity
  8
0
 62
     1
370
     5
100
AcDbPolyline
 90
        2
 70
     0
 43
9.000000000000001
 10
219892.9855490375
 20
135901.8774635915
 10
219850.5591421663
 20
135944.3038704626
  0
LINE
  5
20F
330
2
100
AcDbEntity
  8
0
 62
     1
370
     5
100
AcDbLine
 10
219871.7723456018
 20
135959.090667027
 30
0.0
 11
219871.7723456018
 21
135887.090667027
 31
0.0
  0
LINE
  5
210
330
2
100
AcDbEntity
  8
0
 62
     1
370
     5
100
AcDbLine
 10
219838.7723456018
 20
135123.090667027
 30
0.0
 11
219904.7723456018
 21
135123.090667027
 31
0.0
  0
LWPOLYLINE
  5
211
330
2
100
AcDbEntity
  8
0
 62
     1
370
     5
100
AcDbPolyline
 90
        2
 70
     0
 43
9.000000000000001
 10
219850.5591421663
 20
135144.3038704626
 10
219892.9855490375
 20
135101.8774635915
  0
LINE
  5
212
330
2
100
AcDbEntity
  8
0
 62
     1
370
     5
100
AcDbLine
 10
219871.7723456018
 20
135087.090667027
 30
0.0
 11
219871.7723456018
 21
135159.090667027
 31
0.0
  0
TEXT
  5
213
330
2
100
AcDbEntity
  8
0
 62
   140
370
     5
100
AcDbText
 10
218392.0846627317
 20
136561.8833250219
 30
0.0
 40
80.0
  1
1450
 41
0.9
  7
ROMANS
100
AcDbText
  0
LINE
  5
214
330
2
100
AcDbEntity
  8
0
 62
     1
370
     5
100
AcDbLine
 10
219259.3703770174
 20
136488.8833250219
 30
0.0
 11
219259.3703770174
 21
136554.8833250219
 31
0.0
  0
LWPOLYLINE
  5
215
330
2
100
AcDbEntity
  8
0
 62
     1
370
     5
100
AcDbPolyline
 90
        2
 70
     0
 43
9.000000000000001
 10
219238.1571735818
 20
136500.6701215863
 10
219280.5835804529
 20
136543.0965284575
  0
LINE
  5
216
330
2
100
AcDbEntity
  8
0
 62
     1
370
     5
100
AcDbLine
 10
219295.3703770174
 20
136521.8833250219
 30
0.0
 11
219223.3703770174
 21
136521.8833250219
 31
0.0
  0
LINE
  5
217
330
2
100
AcDbEntity
  8
0
 62
     1
370
     5
100
AcDbLine
 10
217809.3703770174
 20
136554.8833250219
 30
0.0
 11
217809.3703770174
 21
136488.8833250219
 31
0.0
  0
LWPOLYLINE
  5
218
330
2
100
AcDbEntity
  8
0
 62
     1
370
     5
100
AcDbPolyline
 90
        2
 70
     0
 43
9.000000000000001
 10
217830.5835804529
 20
136543.0965284575
 10
217788.1571735818
 20
136500.6701215863
  0
LINE
  5
219
330
2
100
AcDbEntity
  8
0
 62
     1
370
     5
100
AcDbLine
 10
217773.3703770174
 20
136521.8833250219
 30
0.0
 11
217845.3703770173
 21
136521.8833250219
 31
0.0
  0
TEXT
  5
21A
330
2
100
AcDbEntity
  8
0
 62
   140
370
     5
100
AcDbText
 10
218567.0846627317
 20
136397.6239095538
 30
0.0
 40
80.0
  1
1100
 41
0.9
  7
ROMANS
100
AcDbText
  0
LINE
  5
21B
330
2
100
AcDbEntity
  8
0
 62
     1
370
     5
100
AcDbLine
 10
219259.3703770174
 20
136324.6239095538
 30
0.0
 11
219259.3703770174
 21
136390.6239095538
 31
0.0
  0
LWPOLYLINE
  5
21C
330
2
100
AcDbEntity
  8
0
 62
     1
370
     5
100
AcDbPolyline
 90
        2
 70
     0
 43
9.000000000000001
 10
219238.1571735818
 20
136336.4107061182
 10
219280.5835804529
 20
136378.8371129893
  0
LINE
  5
21D
330
2
100
AcDbEntity
  8
0
 62
     1
370
     5
100
AcDbLine
 10
219295.3703770174
 20
136357.6239095538
 30
0.0
 11
219223.3703770174
 21
136357.6239095538
 31
0.0
  0
LINE
  5
21E
330
2
100
AcDbEntity
  8
0
 62
     1
370
     5
100
AcDbLine
 10
218159.3703770174
 20
136390.6239095538
 30
0.0
 11
218159.3703770174
 21
136324.6239095538
 31
0.0
  0
LWPOLYLINE
  5
21F
330
2
100
AcDbEntity
  8
0
 62
     1
370
     5
100
AcDbPolyline
 90
        2
 70
     0
 43
9.000000000000001
 10
218180.583580453
 20
136378.8371129893
 10
218138.1571735818
 20
136336.4107061182
  0
LINE
  5
220
330
2
100
AcDbEntity
  8
0
 62
     1
370
     5
100
AcDbLine
 10
218123.3703770174
 20
136357.6239095538
 30
0.0
 11
218195.3703770174
 21
136357.6239095538
 31
0.0
  0
TEXT
  5
221
330
2
100
AcDbEntity
  8
0
 62
   140
370
     5
100
AcDbText
 10
217881.5132341602
 20
136397.6239095538
 30
0.0
 40
80.0
  1
350
 41
0.9
  7
ROMANS
100
AcDbText
  0
LINE
  5
222
330
2
100
AcDbEntity
  8
0
 62
     1
370
     5
100
AcDbLine
 10
218159.3703770174
 20
136324.6239095538
 30
0.0
 11
218159.3703770174
 21
136390.6239095538
 31
0.0
  0
LWPOLYLINE
  5
223
330
2
100
AcDbEntity
  8
0
 62
     1
370
     5
100
AcDbPolyline
 90
        2
 70
     0
 43
9.000000000000001
 10
218138.1571735818
 20
136336.4107061182
 10
218180.583580453
 20
136378.8371129893
  0
LINE
  5
224
330
2
100
AcDbEntity
  8
0
 62
     1
370
     5
100
AcDbLine
 10
218195.3703770174
 20
136357.6239095538
 30
0.0
 11
218123.3703770174
 21
136357.6239095538
 31
0.0
  0
LINE
  5
225
330
2
100
AcDbEntity
  8
0
 62
     1
370
     5
100
AcDbLine
 10
217809.3703770174
 20
136390.6239095538
 30
0.0
 11
217809.3703770174
 21
136324.6239095538
 31
0.0
  0
LWPOLYLINE
  5
226
330
2
100
AcDbEntity
  8
0
 62
     1
370
     5
100
AcDbPolyline
 90
        2
 70
     0
 43
9.000000000000001
 10
217830.5835804529
 20
136378.8371129893
 10
217788.1571735818
 20
136336.4107061182
  0
LINE
  5
227
330
2
100
AcDbEntity
  8
0
 62
     1
370
     5
100
AcDbLine
 10
217773.3703770174
 20
136357.6239095538
 30
0.0
 11
217845.3703770173
 21
136357.6239095538
 31
0.0
  0
VIEWPORT
  5
231
102
{ACAD_XDICTIONARY
360
302
102
}
330
22F
100
AcDbEntity
 67
     1
  8
0
100
AcDbViewport
 10
5.249999639556165
 20
3.999999883606678
 30
0.0
 40
14.53241403783632
 41
8.992999745766949
 68
     1
 69
     1
 12
5.249999639556165
 22
3.999999883606678
 13
0.0
 23
0.0
 14
10.0
 24
10.0
 15
10.0
 25
10.0
 16
0.0
 26
0.0
 36
1.0
 17
0.0
 27
0.0
 37
0.0
 42
50.0
 43
0.0
 44
0.0
 45
8.992999745766949
 50
0.0
 51
0.0
 72
  1000
 90
   819232
  1

281
     0
 71
     1
 74
     0
110
0.0
120
0.0
130
0.0
111
1.0
121
0.0
131
0.0
112
0.0
122
1.0
132
0.0
 79
     0
146
0.0
  0
VIEWPORT
  5
234
102
{ACAD_XDICTIONARY
360
304
102
}
330
22F
100
AcDbEntity
 67
     1
  8
0
100
AcDbViewport
 10
5.249999761581421
 20
3.999999761581421
 30
0.0
 40
8.399999618530275
 41
6.399999618530274
 68
     2
 69
     2
 12
220287.2000545948
 22
134667.5157057546
 13
0.0
 23
0.0
 14
10.0
 24
10.0
 15
10.0
 25
10.0
 16
0.0
 26
0.0
 36
1.0
 17
0.0
 27
0.0
 37
0.0
 42
50.0
 43
0.0
 44
0.0
 45
14170.21428571428
 50
0.0
 51
0.0
 72
  1000
 90
   819232
  1

281
     0
 71
     1
 74
     0
110
0.0
120
0.0
130
0.0
111
1.0
121
0.0
131
0.0
112
0.0
122
1.0
132
0.0
 79
     0
146
0.0
  0
ENDSEC
  0
SECTION
  2
OBJECTS
  0
DICTIONARY
  5
B
330
0
100
AcDbDictionary
281
     1
  3
ACAD_COLOR
350
25A
  3
ACAD_GROUP
350
255
  3
ACAD_LAYOUT
350
22A
  3
ACAD_MATERIAL
350
D
  3
ACAD_MLINESTYLE
350
256
  3
ACAD_PLOTSETTINGS
350
257
  3
ACAD_PLOTSTYLENAME
350
A
  3
ACAD_SCALELIST
350
25B
  3
ACAD_TABLESTYLE
350
25C
  3
ACAD_VISUALSTYLE
350
22D
  3
ACDB_RECOMPOSE_DATA
350
2F8
  3
AcDbVariableDictionary
350
2EE
  3
CONLABELDictionary
350
29C
  3
CONLDEFDictionary
350
27D
  3
DWGPROPS
350
2F9
  0
DICTIONARY
  5
23A
330
239
100
AcDbDictionary
280
     1
281
     1
  3
ACAD_LAYERFILTERS
360
23B
  3
ACAD_LAYERSTATES
360
23C
  3
ACLYDICTIONARY
360
23D
  0
DICTIONARY
  5
7
330
6
100
AcDbDictionary
280
     1
281
     1
  3
ADSK_XREC_LAYER_RECONCILED
360
8
  0
DICTIONARY
  5
1D
330
1C
100
AcDbDictionary
280
     1
281
     1
  3
ADSK_XREC_LAYER_RECONCILED
360
1E
  0
DICTIONARY
  5
25E
330
25D
100
AcDbDictionary
280
     1
281
     1
  3
ADSK_XREC_LAYER_RECONCILED
360
25F
  0
DICTIONARY
  5
17
330
16
100
AcDbDictionary
280
     1
281
     1
  3
ADSK_XREC_LAYER_RECONCILED
360
18
  0
DICTIONARY
  5
12
330
11
100
AcDbDictionary
280
     1
281
     1
  3
ADSK_XREC_LAYER_RECONCILED
360
13
  0
DICTIONARY
  5
3
330
2
100
AcDbDictionary
280
     1
281
     1
  3
ACAD_SORTENTS
360
27C
  0
DICTIONARY
  5
24C
330
24B
100
AcDbDictionary
280
     1
281
     1
  3
ACAD_SORTENTS
360
27B
  0
DICTIONARY
  5
2FC
330
1F
100
AcDbDictionary
280
     1
281
     1
  3
ACAD_MTEXT_RT
360
2FD
  0
DICTIONARY
  5
2FE
330
23
100
AcDbDictionary
280
     1
281
     1
  3
ACAD_MTEXT_RT
360
2FF
  0
DICTIONARY
  5
302
330
231
100
AcDbDictionary
280
     1
281
     1
  3
ACAD_XREC_ROUNDTRIP
360
303
  0
DICTIONARY
  5
304
330
234
100
AcDbDictionary
280
     1
281
     1
  3
ACAD_XREC_ROUNDTRIP
360
305
  0
DICTIONARY
  5
25A
102
{ACAD_REACTORS
330
B
102
}
330
B
100
AcDbDictionary
281
     1
  0
DICTIONARY
  5
255
102
{ACAD_REACTORS
330
B
102
}
330
B
100
AcDbDictionary
281
     1
  0
DICTIONARY
  5
22A
102
{ACAD_REACTORS
330
B
102
}
330
B
100
AcDbDictionary
281
     1
  3
Layout1
350
236
  3
Model
350
229
  0
DICTIONARY
  5
D
102
{ACAD_REACTORS
330
B
102
}
330
B
100
AcDbDictionary
281
     1
  3
ByBlock
350
259
  3
ByLayer
350
258
  3
Global
350
C
  0
DICTIONARY
  5
256
102
{ACAD_REACTORS
330
B
102
}
330
B
100
AcDbDictionary
281
     1
  3
Standard
350
260
  0
DICTIONARY
  5
257
102
{ACAD_REACTORS
330
B
102
}
330
B
100
AcDbDictionary
281
     1
  0
ACDBDICTIONARYWDFLT
  5
A
102
{ACAD_REACTORS
330
B
102
}
330
B
100
AcDbDictionary
281
     1
  3
Normal
350
9
100
AcDbDictionaryWithDefault
340
9
  0
DICTIONARY
  5
25B
102
{ACAD_REACTORS
330
B
102
}
330
B
100
AcDbDictionary
281
     1
  3
A0
350
265
  3
A1
350
266
  3
A2
350
267
  3
A3
350
268
  3
A4
350
269
  3
A5
350
26A
  3
A6
350
26B
  3
A7
350
26C
  3
A8
350
26D
  3
A9
350
26E
  3
B0
350
26F
  3
B1
350
270
  3
B2
350
271
  3
B3
350
272
  3
B4
350
273
  3
B5
350
274
  3
B6
350
275
  3
B7
350
276
  3
B8
350
277
  3
B9
350
278
  3
C0
350
279
  0
DICTIONARY
  5
25C
102
{ACAD_REACTORS
330
B
102
}
330
B
100
AcDbDictionary
281
     1
  3
Standard
350
261
  0
DICTIONARY
  5
22D
102
{ACAD_REACTORS
330
B
102
}
330
B
100
AcDbDictionary
281
     1
  3
2dWireframe
350
22C
  3
3dWireframe
350
264
  3
Realistic
350
263
  0
XRECORD
  5
2F8
102
{ACAD_REACTORS
330
B
102
}
330
B
100
AcDbXrecord
280
     1
 90
        1
330
261
  0
DICTIONARY
  5
2EE
102
{ACAD_REACTORS
330
B
102
}
330
B
100
AcDbDictionary
281
     1
  3
CANNOSCALE
350
2F1
  3
CMLEADERSTYLE
350
2F0
  3
CTABLESTYLE
350
2EF
  3
DIMASSOC
350
2F5
  3
HIDETEXT
350
2F4
  3
INDEXCTL
350
2F3
  3
SORTENTS
350
2F2
  0
DICTIONARY
  5
29C
102
{ACAD_REACTORS
330
B
102
}
330
B
100
AcDbDictionary
281
     1
  3
_el_wzb_Left_nazw_romans16
350
2ED
  3
_elementy_wiezby_SKROT_Romans16
350
2EC
  3
_materialy_przegrod_pl_Label1
350
2EB
  3
_nazwy_przegrod_romans18
350
2EA
  3
_nazwy_rysunkow_Arial37
350
2E9
  3
_nazwy_rysunkow_Romans18
350
2E8
  3
_opisy_rozne_II_Label1
350
2E7
  3
_opisy_rozne_II_Link1Label1
350
2E6
  3
_posadzki_do_zestawienia_pomieszczen_Romans17
350
2E5
  3
_rozne_opisy_rys_R16_right
350
2E4
  3
_rozne_opisy_rys_Romans12
350
2E3
  3
_rozne_opisy_rys_Romans16
350
2E2
  3
_tabelka_-_inform_i_etykiety_Romans13
350
2E1
  3
_tabelka_Arial15-center
350
2E0
  3
_tabelka_Arial151
350
2DF
  3
_tabelka_Romans 10
350
2DE
  3
_tabelka_Romans13
350
2DD
  3
_tabelka_Romans19
350
2DC
  3
_tbl_nazwy_rys_Arial35
350
2DB
  3
_tbl_nazwy_rys_Romans18
350
2DA
  3
ALFABET-Arial20
350
2D9
  3
ALFABET-Arial26
350
2D8
  3
ALFABET-Arial37
350
2D7
  3
Arial_27
350
2D6
  3
arkusz_nazwy_Arial35
350
2D5
  3
arkusz_nazwy_Arial_35_DwieLinie
350
2D4
  3
arkusz_nazwy_Romans18
350
2D3
  3
arkusz_nazwy_Romans_18
350
2D2
  3
jednostki-Arial18
350
2D1
  3
jednostki-Arial30
350
2D0
  3
jednostki-Romans16
350
2CF
  3
jednostki_arial6.6kursywa
350
2CE
  3
jednostki_ROMANS11
350
2CD
  3
jednostki_ROMANS15
350
2CC
  3
jednostki_Romans30
350
2CB
  3
jednostki_Romans7
350
2CA
  3
jednostkiLabel1
350
2C9
  3
jednostkiRomans22
350
2C8
  3
konstr_drew_arial6.6kursywa
350
2C7
  3
konstr_drew_romans7
350
2C6
  3
konstr_stalarial9kursywa
350
2C5
  3
konstr_stalLabel1
350
2C4
  3
konstr_stalLabel2
350
2C3
  3
miesiace-Romans17
350
2C2
  3
pomieszczenia-Arial 15
350
2C1
  3
pomieszczenia-Romans17
350
2C0
  3
romans16
350
2BF
  3
Romans_17
350
2BE
  3
schematy_arial15
350
2BD
  3
schematy_arial20
350
2BC
  3
schematy_arial37
350
2BB
  3
schematy_romans15
350
2BA
  3
schematy_romans15Right
350
2B9
  3
stolarka-Arial14
350
2B8
  3
stolarka-Romans1607
350
2B7
  3
stolarka-Romans1608
350
2B6
  3
stolarkaLabel1
350
2B5
  3
szczegoly_arial12kursywa
350
2B4
  3
szczegoly_arial6.6kursRight
350
2B3
  3
szczegoly_arial6.6kursywa
350
2B2
  3
szczegoly_Romans7
350
2B1
  3
szczegoly_romans7_right
350
2B0
  3
tbl_nazwy_rys_Arial37
350
2AF
  3
tbl_opisy_Romans_poch20
350
2AE
  3
tbl_opisy_RomansPoch14
350
2AD
  3
tbl_opisy_RomansPoch20_R
350
2AC
  3
tbl_PRZEGRODY
350
2AB
  3
tbl_uwagi_coRomans20Right
350
2AA
  3
uwag_og_na_ark_Arial18
350
2A9
  3
uwagi_co_Arial37
350
2A8
  3
uwagi_co_Romans20
350
2A7
  3
uwagi_na_schematachLabel1
350
2A6
  3
uwagi_na_schematachLabel2
350
2A5
  3
uwagi_na_schematachRight
350
2A4
  3
uwagi_wodkan_Romans18
350
2A3
  3
uwagi_wodkanARIAL37
350
2A2
  3
uwagi_wodkanRomans20_Right
350
2A1
  3
zbroj_plyty_arial22
350
2A0
  3
zbroj_plyty_romans12
350
29F
  3
zbroj_plyty_romans12Right
350
29E
  3
zbroj_plyty_romans9
350
29D
  0
DICTIONARY
  5
27D
102
{ACAD_REACTORS
330
B
102
}
330
B
100
AcDbDictionary
281
     1
  3
_elementy_wiezby_Link1
350
29B
  3
_materialy_przegrod_pl_Link1
350
29A
  3
_nazwy_przegrod_pl_Link1
350
299
  3
_nazwy_rysunkow_Arial37
350
298
  3
_opisy_rozne_II_Link1
350
297
  3
_opisy_rozne_II_Link2
350
296
  3
_posadzki_do_zestawienia_pomieszczen_Link1
350
295
  3
_rozne_opisy_rys_Link1
350
294
  3
_tabelka_-_inform_i_etykiety_Link1
350
293
  3
_tbl_nazwy_rys_Link1
350
292
  3
_uwagi_ogolne_na_arkuszu_Link1
350
291
  3
_~TMPCLP122371_Link1
350
290
  3
ALFABETLink1
350
28F
  3
arkusz_nazwyLink1
350
28E
  3
arkusz_nazwyLink2
350
28D
  3
jednostkiLink1
350
28C
  3
konstr_drewLink1
350
28B
  3
konstr_stalLink1
350
28A
  3
miesiaceLink1
350
289
  3
pomieszczeniaLink1
350
288
  3
schematyLink1
350
287
  3
stolarkaLink1
350
286
  3
szczegolyLink1
350
285
  3
tbl_jednostkiLink1
350
284
  3
tbl_opisyLink1
350
283
  3
tbl_PRZEGRODYLink1
350
282
  3
tbl_uwagi_coLink1
350
281
  3
tbl_uwagi_wodkanLink1
350
280
  3
uwagi_na_schematachLink1
350
27F
  3
zbroj_plytyLink1
350
27E
  0
XRECORD
  5
2F9
102
{ACAD_REACTORS
330
B
102
}
330
B
100
AcDbXrecord
280
     1
  1
DWGPROPS COOKIE
  2

  3

  4

  6

  7

  8
magdalena.jozwik
  9

300
=
301
=
302
=
303
=
304
=
305
=
306
=
307
=
308
=
309
=
 40
8.944468622685185
 41
2452027.670547454
 42
2455455.553771331
  1

 90
        0
  0
DICTIONARY
  5
23B
102
{ACAD_REACTORS
330
23A
102
}
330
23A
100
AcDbDictionary
281
     1
  0
DICTIONARY
  5
23C
102
{ACAD_REACTORS
330
23A
102
}
330
23A
100
AcDbDictionary
281
     1
  0
DICTIONARY
  5
23D
102
{ACAD_REACTORS
330
23A
102
}
330
23A
100
AcDbDictionary
281
     1
1001
ACAD
1000
<All
  0
XRECORD
  5
8
102
{ACAD_REACTORS
330
7
102
}
330
7
100
AcDbXrecord
280
     1
290
     1
  0
XRECORD
  5
1E
102
{ACAD_REACTORS
330
1D
102
}
330
1D
100
AcDbXrecord
280
     1
290
     1
  0
XRECORD
  5
25F
102
{ACAD_REACTORS
330
25E
102
}
330
25E
100
AcDbXrecord
280
     1
290
     1
  0
XRECORD
  5
18
102
{ACAD_REACTORS
330
17
102
}
330
17
100
AcDbXrecord
280
     1
290
     1
  0
XRECORD
  5
13
102
{ACAD_REACTORS
330
12
102
}
330
12
100
AcDbXrecord
280
     1
290
     1
  0
SORTENTSTABLE
  5
27C
102
{ACAD_REACTORS
330
3
102
}
330
3
100
AcDbSortentsTable
330
2
331
79
  5
89
331
B8
  5
D7
331
222
  5
10B
331
1AC
  5
1CC
331
1E3
  5
204
331
F7
  5
9D
331
136
  5
156
331
81
  5
9E
331
C0
  5
DF
331
16D
  5
18D
331
175
  5
195
331
1B4
  5
1D4
331
C8
  5
E7
331
FF
  5
95
331
89
  5
A8
331
13E
  5
15E
331
1EB
  5
11F
331
1F3
  5
226
331
146
  5
166
331
17D
  5
19D
331
91
  5
B0
331
D0
  5
EF
331
107
  5
127
331
1BC
  5
1DC
331
1C4
  5
1E4
331
1FB
  5
219
331
14E
  5
16E
331
185
  5
1A5
331
10F
  5
12F
331
44
  5
51
331
4C
  5
59
331
54
  5
61
331
5C
  5
6C
331
99
  5
B8
331
D8
  5
F7
331
1CC
  5
1EC
331
203
  5
212
331
117
  5
137
331
156
  5
176
331
A1
  5
C0
331
E0
  5
FF
331
18D
  5
1AD
331
195
  5
1B5
331
1D4
  5
1F5
331
E8
  5
4A
331
11F
  5
13F
331
A9
  5
C8
331
15E
  5
17E
331
213
  5
11E
331
166
  5
186
331
19D
  5
1BD
331
127
  5
147
331
1DC
  5
1FD
331
B1
  5
D0
331
21B
  5
113
331
1A5
  5
1C5
331
12F
  5
14F
331
64
  5
74
331
2D
  5
2F
331
6C
  5
7C
331
35
  5
3C
331
74
  5
84
331
3D
  5
49
331
B9
  5
D8
331
F0
  5
36
331
7A
  5
8A
331
1E4
  5
205
331
223
  5
10C
331
137
  5
157
331
16E
  5
18E
331
82
  5
A1
331
C1
  5
E0
331
F8
  5
9C
331
1AD
  5
1CD
331
1B5
  5
1D5
331
1EC
  5
117
331
100
  5
94
331
13F
  5
15F
331
8A
  5
A9
331
C9
  5
E8
331
176
  5
196
331
1BD
  5
1DD
331
1F4
  5
221
331
108
  5
128
331
147
  5
167
331
92
  5
B1
331
D1
  5
F0
331
17E
  5
19E
331
186
  5
1A6
331
1C5
  5
1E5
331
14F
  5
16F
331
1FC
  5
21A
331
45
  5
52
331
4D
  5
5A
331
55
  5
62
331
5D
  5
6D
331
D9
  5
F8
331
110
  5
130
331
9A
  5
B9
331
204
  5
213
331
157
  5
177
331
18E
  5
1AE
331
A2
  5
C1
331
E1
  5
100
331
118
  5
138
331
1CD
  5
1ED
331
1D5
  5
1F6
331
20C
  5
126
331
15F
  5
17F
331
196
  5
1B6
331
AA
  5
C9
331
E9
  5
3D
331
120
  5
140
331
1DD
  5
1FE
331
214
  5
11B
331
128
  5
148
331
B2
  5
D1
331
167
  5
187
331
19E
  5
1BE
331
1A6
  5
1C6
331
21C
  5
114
331
65
  5
75
331
2E
  5
30
331
6D
  5
7D
331
75
  5
85
331
36
  5
3E
331
3E
  5
4B
331
F1
  5
27
331
130
  5
150
331
7B
  5
8B
331
BA
  5
D9
331
224
  5
10D
331
16F
  5
18F
331
1AE
  5
1CE
331
F9
  5
9B
331
138
  5
158
331
1E5
  5
206
331
83
  5
A2
331
C2
  5
E1
331
177
  5
197
331
1B6
  5
1D6
331
CA
  5
E9
331
101
  5
93
331
8B
  5
AA
331
140
  5
160
331
1ED
  5
10F
331
1F5
  5
222
331
148
  5
168
331
17F
  5
19F
331
93
  5
B2
331
D2
  5
F1
331
109
  5
129
331
1BE
  5
1DE
331
1C6
  5
1E6
331
1FD
  5
21B
331
187
  5
1A7
331
46
  5
53
331
4E
  5
5B
331
56
  5
66
331
5E
  5
6E
331
111
  5
131
331
150
  5
170
331
9B
  5
BA
331
DA
  5
F9
331
1CE
  5
1EE
331
205
  5
20F
331
119
  5
139
331
158
  5
178
331
A3
  5
C2
331
E2
  5
101
331
18F
  5
1AF
331
197
  5
1B7
331
1D6
  5
1F7
331
EA
  5
48
331
121
  5
141
331
AB
  5
CA
331
160
  5
180
331
20D
  5
123
331
215
  5
11C
331
19F
  5
1BF
331
B3
  5
D2
331
129
  5
149
331
1DE
  5
1FF
331
21D
  5
115
331
1A7
  5
1C7
331
66
  5
76
331
27
  5
28
331
2F
  5
31
331
6E
  5
7E
331
37
  5
3F
331
76
  5
86
331
3F
  5
4C
331
168
  5
188
331
BB
  5
DA
331
F2
  5
29
331
7C
  5
8C
331
131
  5
151
331
1E6
  5
207
331
225
  5
108
331
139
  5
159
331
170
  5
190
331
84
  5
A3
331
C3
  5
E2
331
FA
  5
9A
331
1AF
  5
1CF
331
1B7
  5
1D7
331
1EE
  5
107
331
102
  5
92
331
141
  5
161
331
8C
  5
AB
331
CB
  5
EA
331
178
  5
198
331
180
  5
1A0
331
1BF
  5
1DF
331
10A
  5
12A
331
149
  5
169
331
1F6
  5
223
331
94
  5
B3
331
D3
  5
F2
331
1C7
  5
1E7
331
1FE
  5
217
331
47
  5
54
331
4F
  5
5C
331
57
  5
67
331
5F
  5
6F
331
188
  5
1A8
331
DB
  5
FA
331
112
  5
132
331
9C
  5
BB
331
151
  5
171
331
206
  5
20C
331
159
  5
179
331
190
  5
1B0
331
A4
  5
C3
331
E3
  5
102
331
11A
  5
13A
331
1CF
  5
1EF
331
1D7
  5
1F8
331
20E
  5
124
331
122
  5
142
331
161
  5
181
331
AC
  5
CB
331
EB
  5
45
331
198
  5
1B8
331
1DF
  5
200
331
216
  5
11D
331
12A
  5
14A
331
B4
  5
D3
331
1A0
  5
1C0
331
21E
  5
110
331
28
  5
2A
331
67
  5
77
331
6F
  5
7F
331
30
  5
33
331
77
  5
87
331
38
  5
41
331
1A8
  5
1C8
331
F3
  5
105
331
132
  5
152
331
7D
  5
8D
331
BC
  5
DB
331
169
  5
189
331
226
  5
109
331
171
  5
191
331
1B0
  5
1D0
331
C4
  5
E3
331
FB
  5
99
331
85
  5
A4
331
13A
  5
15A
331
1E7
  5
220
331
1EF
  5
227
331
179
  5
199
331
1B8
  5
1D8
331
CC
  5
EB
331
103
  5
91
331
8D
  5
AC
331
142
  5
162
331
1F7
  5
21F
331
14A
  5
16A
331
181
  5
1A1
331
95
  5
B4
331
D4
  5
F3
331
10B
  5
12B
331
1C0
  5
1E0
331
1FF
  5
214
331
40
  5
4D
331
48
  5
55
331
50
  5
5D
331
58
  5
68
331
1C8
  5
1E8
331
113
  5
133
331
152
  5
172
331
9D
  5
BC
331
DC
  5
FB
331
189
  5
1A9
331
191
  5
1B1
331
1D0
  5
1F1
331
11B
  5
13B
331
15A
  5
17A
331
207
  5
20D
331
A5
  5
C4
331
E4
  5
39
331
199
  5
1B9
331
1D8
  5
1F9
331
EC
  5
40
331
123
  5
143
331
AD
  5
CC
331
162
  5
182
331
20F
  5
125
331
217
  5
118
331
1A1
  5
1C1
331
B5
  5
D4
331
12B
  5
14B
331
21F
  5
111
331
60
  5
70
331
68
  5
78
331
29
  5
2B
331
31
  5
35
331
70
  5
80
331
39
  5
43
331
1E0
  5
201
331
133
  5
153
331
16A
  5
18A
331
BD
  5
DC
331
F4
  5
106
331
1A9
  5
1C9
331
7E
  5
8E
331
1E8
  5
218
331
227
  5
10A
331
13B
  5
15B
331
172
  5
192
331
86
  5
A5
331
C5
  5
E4
331
FC
  5
98
331
1B1
  5
1D1
331
1B9
  5
1D9
331
104
  5
63
331
143
  5
163
331
8E
  5
AD
331
CD
  5
EC
331
17A
  5
19A
331
182
  5
1A2
331
1C1
  5
1E1
331
D5
  5
F4
331
10C
  5
12C
331
96
  5
B5
331
14B
  5
16B
331
1F8
  5
21C
331
41
  5
4E
331
49
  5
56
331
51
  5
5E
331
59
  5
69
331
200
  5
215
331
18A
  5
1AA
331
1C9
  5
1E9
331
DD
  5
FC
331
114
  5
134
331
9E
  5
BD
331
153
  5
173
331
208
  5
20E
331
15B
  5
17B
331
192
  5
1B2
331
A6
  5
C5
331
E5
  5
3B
331
11C
  5
13C
331
1D1
  5
1F2
331
1D9
  5
1FA
331
210
  5
120
331
124
  5
144
331
163
  5
183
331
AE
  5
CD
331
ED
  5
103
331
19A
  5
1BA
331
1A2
  5
1C2
331
12C
  5
14C
331
B6
  5
D5
331
218
  5
119
331
61
  5
71
331
2A
  5
2C
331
69
  5
79
331
71
  5
81
331
32
  5
37
331
3A
  5
44
331
1AA
  5
1CA
331
1E1
  5
202
331
F5
  5
9F
331
134
  5
154
331
7F
  5
8F
331
BE
  5
DD
331
16B
  5
18B
331
220
  5
112
331
173
  5
193
331
1B2
  5
1D2
331
C6
  5
E5
331
FD
  5
97
331
87
  5
A6
331
13C
  5
15C
331
1E9
  5
210
331
1F1
  5
224
331
144
  5
164
331
17B
  5
19B
331
CE
  5
ED
331
105
  5
64
331
1BA
  5
1DA
331
8F
  5
AE
331
1F9
  5
21D
331
14C
  5
16C
331
183
  5
1A3
331
97
  5
B6
331
D6
  5
F5
331
10D
  5
12D
331
1C2
  5
1E2
331
42
  5
4F
331
4A
  5
57
331
52
  5
5F
331
5A
  5
6A
331
1CA
  5
1EA
331
201
  5
216
331
115
  5
135
331
154
  5
174
331
9F
  5
BE
331
DE
  5
FD
331
18B
  5
1AB
331
193
  5
1B3
331
1D2
  5
1F3
331
E6
  5
42
331
11D
  5
13D
331
A7
  5
C6
331
15C
  5
17C
331
211
  5
121
331
19B
  5
1BB
331
1DA
  5
1FB
331
EE
  5
104
331
125
  5
145
331
AF
  5
CE
331
164
  5
184
331
219
  5
11A
331
1A3
  5
1C3
331
B7
  5
D6
331
12D
  5
14D
331
62
  5
72
331
2B
  5
2D
331
6A
  5
7A
331
33
  5
38
331
72
  5
82
331
3B
  5
46
331
78
  5
88
331
1E2
  5
203
331
221
  5
10E
331
135
  5
155
331
16C
  5
18C
331
80
  5
90
331
BF
  5
DE
331
F6
  5
A0
331
1AB
  5
1CB
331
1B3
  5
1D3
331
1EA
  5
208
331
13D
  5
15D
331
174
  5
194
331
88
  5
A7
331
C7
  5
E6
331
FE
  5
96
331
1BB
  5
1DB
331
1F2
  5
225
331
106
  5
65
331
145
  5
165
331
90
  5
AF
331
CF
  5
EE
331
17C
  5
19C
331
184
  5
1A4
331
1C3
  5
1E3
331
D7
  5
F6
331
10E
  5
12E
331
14D
  5
16D
331
1FA
  5
21E
331
43
  5
50
331
4B
  5
58
331
53
  5
60
331
5B
  5
6B
331
98
  5
B7
331
202
  5
211
331
155
  5
175
331
18C
  5
1AC
331
DF
  5
FE
331
116
  5
136
331
1CB
  5
1EB
331
A0
  5
BF
331
15D
  5
17D
331
194
  5
1B4
331
A8
  5
C7
331
E7
  5
34
331
11E
  5
13E
331
1D3
  5
1F4
331
1DB
  5
1FC
331
212
  5
122
331
126
  5
146
331
165
  5
185
331
B0
  5
CF
331
EF
  5
32
331
19C
  5
1BC
331
1A4
  5
1C4
331
12E
  5
14E
331
21A
  5
116
331
63
  5
73
331
2C
  5
2E
331
6B
  5
7B
331
73
  5
83
331
34
  5
3A
331
3C
  5
47
  0
SORTENTSTABLE
  5
27B
102
{ACAD_REACTORS
330
24C
102
}
330
24C
100
AcDbSortentsTable
330
24B
  0
XRECORD
  5
2FD
102
{ACAD_REACTORS
330
2FC
102
}
330
2FC
100
AcDbXrecord
280
     1
 40
264312.0
  1
{\fArial|b0|i0|c238|p34;MOŻNA WKLEIĆ DO PROJEKTU ZAGOSPODAROWANIA TERENU}
  0
XRECORD
  5
2FF
102
{ACAD_REACTORS
330
2FE
102
}
330
2FE
100
AcDbXrecord
280
     1
 40
106589.0
  1
{\fArial|b0|i0|c238|p34;OŚ ODBICIA LUSTRZANEGO}
  0
XRECORD
  5
303
102
{ACAD_REACTORS
330
302
102
}
330
302
100
AcDbXrecord
280
     1
102
SHADEPLOT
 70
     0
  0
XRECORD
  5
305
102
{ACAD_REACTORS
330
304
102
}
330
304
100
AcDbXrecord
280
     1
102
SHADEPLOT
 70
     0
  0
LAYOUT
  5
236
102
{ACAD_XDICTIONARY
360
237
102
}
102
{ACAD_REACTORS
330
22A
102
}
330
22A
100
AcDbPlotSettings
  1

  2
none_device
  4
Letter_(8.50_x_11.00_Inches)
  6

 40
6.349999904632568
 41
6.349999904632568
 42
6.350006103515625
 43
6.350006103515625
 44
215.8999938964844
 45
279.3999938964844
 46
0.0
 47
0.0
 48
0.0
 49
0.0
140
0.0
141
0.0
142
1.0
143
1.0
 70
   688
 72
     0
 73
     1
 74
     5
  7
monochrome_140.ctb
 75
    16
147
1.0
148
0.0
149
0.0
100
AcDbLayout
  1
Layout1
 70
     1
 71
     1
 10
-0.2500002402958907
 20
-0.2499999962453767
 11
10.74999951940822
 21
8.249999763458733
 12
0.0
 22
0.0
 32
0.0
 14
1.049999952316284
 24
0.7999999523162842
 34
0.0
 15
9.449999570846559
 25
7.199999570846558
 35
0.0
146
0.0
 13
0.0
 23
0.0
 33
0.0
 16
1.0
 26
0.0
 36
0.0
 17
0.0
 27
1.0
 37
0.0
 76
     0
330
22F
331
231
1001
ACAD_PSEXT
1000
None
1000
None
1000
Not applicable
1000
The layout will not be plotted unless a new plotter configuration name is selected.
1070
     0
  0
LAYOUT
  5
229
102
{ACAD_XDICTIONARY
360
300
102
}
102
{ACAD_REACTORS
330
22A
102
}
330
22A
100
AcDbPlotSettings
  1

  2
PDFCreator
  4
A4
  6
RODODENDRON 5
 40
3.174999952316284
 41
3.174999952316284
 42
3.175003051757812
 43
3.17498779296875
 44
209.8886566162109
 45
297.0530090332031
 46
-0.230673193931878
 47
5.151510643959028
 48
215187.2000545948
 49
127657.5157057546
140
225387.2000545948
141
141677.5157057546
142
1.0
143
50.0
 70
 11956
 72
     1
 73
     0
 74
     4
  7
monochrome_140.ctb
 75
    25
147
0.02
148
-215187.2000545948
149
-127657.5157057546
100
AcDbLayout
  1
Model
 70
     1
 71
     0
 10
0.0
 20
0.0
 11
12.0
 21
9.0
 12
0.0
 22
0.0
 32
0.0
 14
0.0
 24
0.0
 34
0.0
 15
0.0
 25
0.0
 35
0.0
146
0.0
 13
0.0
 23
0.0
 33
0.0
 16
1.0
 26
0.0
 36
0.0
 17
0.0
 27
1.0
 37
0.0
 76
     0
330
2
331
247
1001
ACAD_PSEXT
1000
PDFCreator
1000
PDFCreator
1000
PDFCreator:
1000
eDoc Printer
1070
     0
  0
MATERIAL
  5
259
102
{ACAD_XDICTIONARY
360
309
102
}
102
{ACAD_REACTORS
330
D
102
}
330
D
100
AcDbMaterial
  1
ByBlock
 73
     1
 78
     1
172
     1
176
     1
270
     1
274
     1
  0
MATERIAL
  5
258
102
{ACAD_XDICTIONARY
360
307
102
}
102
{ACAD_REACTORS
330
D
102
}
330
D
100
AcDbMaterial
  1
ByLayer
 73
     1
 78
     1
172
     1
176
     1
270
     1
274
     1
  0
MATERIAL
  5
C
102
{ACAD_XDICTIONARY
360
2FA
102
}
102
{ACAD_REACTORS
330
D
102
}
330
D
100
AcDbMaterial
  1
Global
 73
     1
 78
     1
172
     1
176
     1
270
     1
274
     1
  0
MLINESTYLE
  5
260
102
{ACAD_REACTORS
330
256
102
}
330
256
100
AcDbMlineStyle
  2
STANDARD
 70
     0
  3

 62
   256
 51
90.0
 52
90.0
 71
     2
 49
0.5
 62
   256
  6
BYLAYER
 49
-0.5
 62
   256
  6
BYLAYER
  0
ACDBPLACEHOLDER
  5
9
102
{ACAD_REACTORS
330
A
102
}
330
A
  0
SCALE
  5
265
102
{ACAD_REACTORS
330
25B
102
}
330
25B
100
AcDbScale
 70
     0
300
1:1
140
1.0
141
0.1
290
     0
  0
SCALE
  5
266
102
{ACAD_REACTORS
330
25B
102
}
330
25B
100
AcDbScale
 70
     0
300
1:2
140
1.0
141
0.2
290
     0
  0
SCALE
  5
267
102
{ACAD_REACTORS
330
25B
102
}
330
25B
100
AcDbScale
 70
     0
300
1:2.5
140
1.0
141
0.25
290
     0
  0
SCALE
  5
268
102
{ACAD_REACTORS
330
25B
102
}
330
25B
100
AcDbScale
 70
     0
300
1:5
140
1.0
141
0.5
290
     0
  0
SCALE
  5
269
102
{ACAD_REACTORS
330
25B
102
}
330
25B
100
AcDbScale
 70
     0
300
1:7.5
140
1.0
141
0.75
290
     0
  0
SCALE
  5
26A
102
{ACAD_REACTORS
330
25B
102
}
330
25B
100
AcDbScale
 70
     0
300
1:10
140
1.0
141
1.0
290
     1
  0
SCALE
  5
26B
102
{ACAD_REACTORS
330
25B
102
}
330
25B
100
AcDbScale
 70
     0
300
1:20
140
1.0
141
2.0
290
     0
  0
SCALE
  5
26C
102
{ACAD_REACTORS
330
25B
102
}
330
25B
100
AcDbScale
 70
     0
300
1:25
140
1.0
141
2.5
290
     0
  0
SCALE
  5
26D
102
{ACAD_REACTORS
330
25B
102
}
330
25B
100
AcDbScale
 70
     0
300
1:50
140
1.0
141
5.0
290
     0
  0
SCALE
  5
26E
102
{ACAD_REACTORS
330
25B
102
}
330
25B
100
AcDbScale
 70
     0
300
1:75
140
1.0
141
7.5
290
     0
  0
SCALE
  5
26F
102
{ACAD_REACTORS
330
25B
102
}
330
25B
100
AcDbScale
 70
     0
300
1:100
140
1.0
141
10.0
290
     0
  0
SCALE
  5
270
102
{ACAD_REACTORS
330
25B
102
}
330
25B
100
AcDbScale
 70
     0
300
1:150
140
1.0
141
15.0
290
     0
  0
SCALE
  5
271
102
{ACAD_REACTORS
330
25B
102
}
330
25B
100
AcDbScale
 70
     0
300
1:200
140
1.0
141
20.0
290
     0
  0
SCALE
  5
272
102
{ACAD_REACTORS
330
25B
102
}
330
25B
100
AcDbScale
 70
     0
300
1:250
140
1.0
141
25.0
290
     0
  0
SCALE
  5
273
102
{ACAD_REACTORS
330
25B
102
}
330
25B
100
AcDbScale
 70
     0
300
1:500
140
1.0
141
50.0
290
     0
  0
SCALE
  5
274
102
{ACAD_REACTORS
330
25B
102
}
330
25B
100
AcDbScale
 70
     0
300
1:750
140
1.0
141
75.0
290
     0
  0
SCALE
  5
275
102
{ACAD_REACTORS
330
25B
102
}
330
25B
100
AcDbScale
 70
     0
300
1:1000
140
1.0
141
100.0
290
     0
  0
SCALE
  5
276
102
{ACAD_REACTORS
330
25B
102
}
330
25B
100
AcDbScale
 70
     0
300
1:1250
140
1.0
141
125.0
290
     0
  0
SCALE
  5
277
102
{ACAD_REACTORS
330
25B
102
}
330
25B
100
AcDbScale
 70
     0
300
1:2000
140
1.0
141
200.0
290
     0
  0
SCALE
  5
278
102
{ACAD_REACTORS
330
25B
102
}
330
25B
100
AcDbScale
 70
     0
300
1:2500
140
1.0
141
250.0
290
     0
  0
SCALE
  5
279
102
{ACAD_REACTORS
330
25B
102
}
330
25B
100
AcDbScale
 70
     0
300
1:5000
140
1.0
141
500.0
290
     0
  0
TABLESTYLE
  5
261
102
{ACAD_XDICTIONARY
360
262
102
}
102
{ACAD_REACTORS
330
25C
102
}
330
25C
100
AcDbTableStyle
  3
Standard
 70
     0
 71
     0
 40
0.06
 41
0.06
280
     0
281
     0
  7
Standard
140
0.18
170
     2
 62
     0
 63
     7
283
     0
274
    -2
284
     1
 64
     0
275
    -2
285
     1
 65
     0
276
    -2
286
     1
 66
     0
277
    -2
287
     1
 67
     0
278
    -2
288
     1
 68
     0
279
    -2
289
     1
 69
     0
  7
Standard
140
0.25
170
     5
 62
     0
 63
     7
283
     0
274
    -2
284
     1
 64
     0
275
    -2
285
     1
 65
     0
276
    -2
286
     1
 66
     0
277
    -2
287
     1
 67
     0
278
    -2
288
     1
 68
     0
279
    -2
289
     1
 69
     0
  7
Standard
140
0.18
170
     5
 62
     0
 63
     7
283
     0
274
    -2
284
     1
 64
     0
275
    -2
285
     1
 65
     0
276
    -2
286
     1
 66
     0
277
    -2
287
     1
 67
     0
278
    -2
288
     1
 68
     0
279
    -2
289
     1
 69
     0
  0
VISUALSTYLE
  5
22C
102
{ACAD_REACTORS
330
22D
102
}
330
22D
100
AcDbVisualStyle
  2
2dWireframe
 70
     4
 71
     0
 72
     2
 73
     0
 90
        0
 40
-0.6
 41
-30.0
 62
     5
 63
     7
 74
     1
 91
        4
 64
     7
 65
   257
 75
     1
175
     1
 42
1.0
 92
        0
 66
   257
 43
1.0
 76
     1
 77
     6
 78
     2
 67
     7
 79
     5
170
     0
171
     0
290
     0
174
     0
 93
        1
 44
0.0
173
     0
291
     0
 45
0.0
1001
ACAD
1000
AcDbSavedByObjectVersion
1070
     0
  0
VISUALSTYLE
  5
264
102
{ACAD_REACTORS
330
22D
102
}
330
22D
100
AcDbVisualStyle
  2
3dWireframe
 70
     5
 71
     0
 72
     2
 73
     0
 90
        0
 40
-0.6
 41
-30.0
 62
     5
 63
     7
 74
     1
 91
        4
 64
     7
 65
   257
 75
     1
175
     1
 42
1.0
 92
        0
 66
   257
 43
1.0
 76
     1
 77
     6
 78
     2
 67
     7
 79
     5
170
     0
171
     0
290
     0
174
     0
 93
        1
 44
0.0
173
     0
291
     0
 45
0.0
1001
ACAD
1000
AcDbSavedByObjectVersion
1070
     0
  0
VISUALSTYLE
  5
263
102
{ACAD_REACTORS
330
22D
102
}
330
22D
100
AcDbVisualStyle
  2
Realistic
 70
     8
 71
     2
 72
     2
 73
     0
 90
        0
 40
-0.6
 41
-30.0
 62
     5
 63
     7
 74
     1
 91
        0
 64
     7
 65
   257
 75
     1
175
     1
 42
1.0
 92
        8
 66
     8
 43
1.0
 76
     1
 77
     6
 78
     2
 67
     7
 79
     5
170
     0
171
     0
290
     0
174
     0
 93
       13
 44
0.0
173
     0
291
     0
 45
0.0
1001
ACAD
1000
AcDbSavedByObjectVersion
1070
     0
  0
DICTIONARYVAR
  5
2F1
102
{ACAD_REACTORS
330
2EE
102
}
330
2EE
100
DictionaryVariables
280
     0
  1
1:100
  0
DICTIONARYVAR
  5
2F0
102
{ACAD_REACTORS
330
2EE
102
}
330
2EE
100
DictionaryVariables
280
     0
  1
STANDARD
  0
DICTIONARYVAR
  5
2EF
102
{ACAD_REACTORS
330
2EE
102
}
330
2EE
100
DictionaryVariables
280
     0
  1
STANDARD
  0
DICTIONARYVAR
  5
2F5
102
{ACAD_REACTORS
330
2EE
102
}
330
2EE
100
DictionaryVariables
280
     0
  1
1
  0
DICTIONARYVAR
  5
2F4
102
{ACAD_REACTORS
330
2EE
102
}
330
2EE
100
DictionaryVariables
280
     0
  1
1
  0
DICTIONARYVAR
  5
2F3
102
{ACAD_REACTORS
330
2EE
102
}
330
2EE
100
DictionaryVariables
280
     0
  1
0
  0
DICTIONARYVAR
  5
2F2
102
{ACAD_REACTORS
330
2EE
102
}
330
2EE
100
DictionaryVariables
280
     0
  1
127
  0
OBJECT_PTR
  5
2ED
102
{ACAD_REACTORS
330
29C
102
}
330
29C
1001
DCO15
1000
jet_dbsamples..."elementy wiezby"(_el_wzb_Left_nazw_romans16)
1000
nazw_el_wiezb
1040
1.0
1040
1.0
1040
0.0
1040
0.0
1040
0.0
1040
0.0
1040
0.0
1040
15.0
1071
        0
1071
      256
1071
        7
1071
        5
1071
        1
1000
ROMANS
1000
ByLayer
1000
#(nazw_el_wiezb)
  0
OBJECT_PTR
  5
2EC
102
{ACAD_REACTORS
330
29C
102
}
330
29C
1001
DCO15
1000
jet_dbsamples..."elementy wiezby"(_elementy_wiezby_SKROT_Romans16)
1000
skrot_el_wiezb
1040
1.0
1040
1.0
1040
0.0
1040
0.0
1040
0.0
1040
0.0
1040
0.0
1040
16.0
1071
        0
1071
      256
1071
        9
1071
        5
1071
        1
1000
ROMANS
1000
ByLayer
1000
#(skrot_el_wiezb)
  0
OBJECT_PTR
  5
2EB
102
{ACAD_REACTORS
330
29C
102
}
330
29C
1001
DCO15
1000
jet_dbsamples..."materialy przegrod pl"(_materialy_przegrod_pl_Label1)
1000
nazw_mat
1040
1.0
1040
1.0
1040
0.0
1040
0.0
1040
0.0
1040
0.0
1040
0.0
1040
17.0
1071
        0
1071
      256
1071
        7
1071
        5
1071
        1
1000
ROMANS
1000
ByLayer
1000
#(nazw_mat)
  0
OBJECT_PTR
  5
2EA
102
{ACAD_REACTORS
330
29C
102
}
330
29C
1001
DCO15
1000
jet_dbsamples..."nazwy przegrod pl"(_nazwy_przegrod_romans18)
1000
nzw_przegrody
1040
1.0
1040
1.0
1040
0.0
1040
0.0
1040
0.0
1040
0.0
1040
0.0
1040
17.0
1071
        0
1071
      256
1071
        7
1071
        5
1071
        1
1000
ROMANS
1000
ByLayer
1000
{\L\C2;#(nzw_przegrody)}
  0
OBJECT_PTR
  5
2E9
102
{ACAD_REACTORS
330
29C
102
}
330
29C
1001
DCO15
1000
jet_dbsamples..."nazwy rysunkow"(_nazwy_rysunkow_Arial37)
1000
1linia
1000
2linia
1000
3linia
1040
1.0
1040
1.0
1040
0.0
1040
0.0
1040
0.0
1040
0.0
1040
0.0
1040
37.0
1071
        0
1071
      256
1071
        1
1071
        5
1071
        1
1000
ROMANS
1000
ByLayer
1000
{\fArial|b0|i0|c238|p34;#(1linia)\P#(2linia)\P#(3linia)}
  0
OBJECT_PTR
  5
2E8
102
{ACAD_REACTORS
330
29C
102
}
330
29C
1001
DCO15
1000
jet_dbsamples..."nazwy rysunkow"(_nazwy_rysunkow_Romans18)
1000
1linia
1000
2linia
1000
3linia
1040
1.0
1040
1.0
1040
0.0
1040
0.0
1040
0.0
1040
0.0
1040
0.0
1040
18.0
1071
        0
1071
      256
1071
        2
1071
        5
1071
        1
1000
ROMANS
1000
ByLayer
1000
{\Fromans.shx|c238;#(1linia)\P#(2linia)\P#(3linia)}
  0
OBJECT_PTR
  5
2E7
102
{ACAD_REACTORS
330
29C
102
}
330
29C
1001
DCO15
1000
jet_dbsamples..."opisy rozne II"(_opisy_rozne_II_Label1)
1000
opis różny
1040
1.0
1040
1.0
1040
0.0
1040
0.0
1040
0.0
1040
0.0
1040
0.0
1040
10.0
1071
        0
1071
      256
1071
        1
1071
        5
1071
        1
1000
ROMANS
1000
ByLayer
1000
#(opis różny)
  0
OBJECT_PTR
  5
2E6
102
{ACAD_REACTORS
330
29C
102
}
330
29C
1001
DCO15
1000
jet_dbsamples..."opisy rozne II"(_opisy_rozne_II_Link1Label1)
1000
opis różny
1040
1.0
1040
1.0
1040
0.0
1040
0.0
1040
0.0
1040
0.0
1040
0.0
1040
10.0
1071
        0
1071
      256
1071
        1
1071
        5
1071
        1
1000
ROMANS
1000
ByLayer
1000
#(opis różny)
  0
OBJECT_PTR
  5
2E5
102
{ACAD_REACTORS
330
29C
102
}
330
29C
1001
DCO15
1000
jet_dbsamples..."posadzki do zestawienia pomieszczen"(_posadzki_do_zestawienia_pomieszczen_Romans17)
1000
nazwa_pos
1040
1.0
1040
1.0
1040
0.0
1040
0.0
1040
0.0
1040
0.0
1040
0.0
1040
17.0
1071
        0
1071
      256
1071
        7
1071
        5
1071
        1
1000
ROMANS
1000
ByLayer
1000
#(nazwa_pos)
  0
OBJECT_PTR
  5
2E4
102
{ACAD_REACTORS
330
29C
102
}
330
29C
1001
DCO15
1000
jet_dbsamples..."rozne opisy rys"(_rozne_opisy_rys_R16_right)
1000
1L
1000
2L
1000
3L
1000
4L
1000
5L
1040
1.0
1040
1.0
1040
0.0
1040
0.0
1040
0.0
1040
0.0
1040
0.0
1040
16.0
1071
        0
1071
      256
1071
        3
1071
        5
1071
        1
1000
ROMANS
1000
ByLayer
1000
#(1L)\P#(2L)\P#(3L)\P#(4L)\P#(5L)
  0
OBJECT_PTR
  5
2E3
102
{ACAD_REACTORS
330
29C
102
}
330
29C
1001
DCO15
1000
jet_dbsamples..."rozne opisy rys"(_rozne_opisy_rys_Romans12)
1000
1L
1000
2L
1000
3L
1000
4L
1000
5L
1040
1.0
1040
1.0
1040
0.0
1040
0.0
1040
0.0
1040
0.0
1040
0.0
1040
13.0
1071
        0
1071
      256
1071
        1
1071
        5
1071
        1
1000
ROMANS
1000
ByLayer
1000
#(1L)\P#(2L)\P#(3L)\P#(4L)\P#(5L)
  0
OBJECT_PTR
  5
2E2
102
{ACAD_REACTORS
330
29C
102
}
330
29C
1001
DCO15
1000
jet_dbsamples..."rozne opisy rys"(_rozne_opisy_rys_Romans16)
1000
1L
1000
2L
1000
3L
1000
4L
1000
5L
1040
1.0
1040
1.0
1040
0.0
1040
0.0
1040
0.0
1040
0.0
1040
0.0
1040
16.0
1071
        0
1071
      256
1071
        1
1071
        5
1071
        1
1000
ROMANS
1000
ByLayer
1000
#(1L)\P#(2L)\P#(3L)\P#(4L)\P#(5L)
  0
OBJECT_PTR
  5
2E1
102
{ACAD_REACTORS
330
29C
102
}
330
29C
1001
DCO15
1000
jet_dbsamples..."tabelka - inform i etykiety"(_tabelka_-_inform_i_etykiety_Romans13)
1000
1linia
1000
2linia_ewentualna
1000
3linia_ewentualna
1040
1.0
1040
1.0
1040
0.0
1040
0.0
1040
0.0
1040
0.0
1040
0.0
1040
13.0
1071
        0
1071
      256
1071
        1
1071
        5
1071
        1
1000
ROMANS
1000
ByLayer
1000
#(1linia)\P#(2linia_ewentualna)\P#(3linia_ewentualna)
  0
OBJECT_PTR
  5
2E0
102
{ACAD_REACTORS
330
29C
102
}
330
29C
1001
DCO15
1000
jet_dbsamples..."tabelka - inform i etykiety"(_tabelka_Arial15-center)
1000
1linia
1000
2linia_ewentualna
1000
3linia_ewentualna
1040
1.0
1040
1.0
1040
0.0
1040
0.0
1040
0.0
1040
0.0
1040
0.0
1040
15.0
1071
        0
1071
      256
1071
        2
1071
        5
1071
        1
1000
ROMANS
1000
ByLayer
1000
{\fArial|b0|i0|c238|p34;#(1linia)\P#(2linia_ewentualna)\P#(3linia_ewentualna)}
  0
OBJECT_PTR
  5
2DF
102
{ACAD_REACTORS
330
29C
102
}
330
29C
1001
DCO15
1000
jet_dbsamples..."tabelka - inform i etykiety"(_tabelka_Arial151)
1000
1linia
1040
1.0
1040
1.0
1040
0.0
1040
0.0
1040
0.0
1040
0.0
1040
0.0
1040
15.0
1071
        0
1071
      256
1071
        1
1071
        5
1071
        1
1000
ARIAL
1000
ByLayer
1000
{\fArial|b0|i0|c238|p34;#(1linia)}
  0
OBJECT_PTR
  5
2DE
102
{ACAD_REACTORS
330
29C
102
}
330
29C
1001
DCO15
1000
jet_dbsamples..."tabelka - inform i etykiety"(_tabelka_Romans 10)
1000
1linia
1000
2linia_ewentualna
1000
3linia_ewentualna
1040
1.0
1040
1.0
1040
0.0
1040
0.0
1040
0.0
1040
0.0
1040
0.0
1040
10.0
1071
        0
1071
      256
1071
        1
1071
        5
1071
        1
1000
ARIAL
1000
ByLayer
1000
#(1linia)\P#(2linia_ewentualna)\P#(3linia_ewentualna)
  0
OBJECT_PTR
  5
2DD
102
{ACAD_REACTORS
330
29C
102
}
330
29C
1001
DCO15
1000
jet_dbsamples..."tabelka - inform i etykiety"(_tabelka_Romans13)
1000
1linia
1000
2linia_ewentualna
1000
3linia_ewentualna
1040
1.0
1040
1.0
1040
0.0
1040
0.0
1040
0.0
1040
0.0
1040
0.0
1040
13.0
1071
        0
1071
      256
1071
        1
1071
        5
1071
        1
1000
ARIAL
1000
ByLayer
1000
#(1linia)\P#(2linia_ewentualna)\P#(3linia_ewentualna)
  0
OBJECT_PTR
  5
2DC
102
{ACAD_REACTORS
330
29C
102
}
330
29C
1001
DCO15
1000
jet_dbsamples..."tabelka - inform i etykiety"(_tabelka_Romans19)
1000
1linia
1000
2linia_ewentualna
1000
3linia_ewentualna
1040
1.0
1040
1.0
1040
0.0
1040
0.0
1040
0.0
1040
0.0
1040
0.0
1040
19.0
1071
        0
1071
      256
1071
        2
1071
        5
1071
        1
1000
ARIAL
1000
ByLayer
1000
#(1linia)\P#(2linia_ewentualna)\P#(3linia_ewentualna)
  0
OBJECT_PTR
  5
2DB
102
{ACAD_REACTORS
330
29C
102
}
330
29C
1001
DCO15
1000
ELE..."tbl_nazwy rys"(_tbl_nazwy_rys_Arial35)
1000
2
1040
1.0
1040
1.0
1040
0.0
1040
0.0
1040
0.0
1040
0.0
1040
0.0
1040
35.0
1071
        0
1071
      256
1071
        1
1071
        5
1071
        1
1000
ARIAL
1000
ByLayer
1000
#(2)
  0
OBJECT_PTR
  5
2DA
102
{ACAD_REACTORS
330
29C
102
}
330
29C
1001
DCO15
1000
ELE..."tbl_nazwy rys"(_tbl_nazwy_rys_Romans18)
1000
2
1040
1.0
1040
1.0
1040
0.0
1040
0.0
1040
0.0
1040
0.0
1040
0.0
1040
18.0
1071
        0
1071
      256
1071
        1
1071
        5
1071
        1
1000
ARIAL
1000
ByLayer
1000
#(2)
  0
OBJECT_PTR
  5
2D9
102
{ACAD_REACTORS
330
29C
102
}
330
29C
1001
DCO15
1000
jet_dbsamples...ALFABET(ALFABET-Arial20)
1000
liter_alf
1040
1.0
1040
1.0
1040
0.0
1040
0.0
1040
0.0
1040
0.0
1040
0.0
1040
20.0
1071
        0
1071
      256
1071
        7
1071
        5
1071
        1
1000
ARIAL
1000
ByLayer
1000
{\fArial|b0|i0|c238|p34;#(liter_alf)}
  0
OBJECT_PTR
  5
2D8
102
{ACAD_REACTORS
330
29C
102
}
330
29C
1001
DCO15
1000
jet_dbsamples...ALFABET(ALFABET-Arial26)
1000
liter_alf
1040
1.0
1040
1.0
1040
0.0
1040
0.0
1040
0.0
1040
0.0
1040
0.0
1040
26.0
1071
        0
1071
      256
1071
        7
1071
        5
1071
        1
1000
ARIAL
1000
ByLayer
1000
{\fArial|b0|i0|c238|p34;\C140;#(liter_alf)}
  0
OBJECT_PTR
  5
2D7
102
{ACAD_REACTORS
330
29C
102
}
330
29C
1001
DCO15
1000
jet_dbsamples...ALFABET(ALFABET-Arial37)
1000
liter_alf
1040
1.0
1040
1.0
1040
0.0
1040
0.0
1040
0.0
1040
0.0
1040
0.0
1040
37.0
1071
        0
1071
      256
1071
        7
1071
        5
1071
        1
1000
ARIAL
1000
ByLayer
1000
{\fArial|b0|i0|c238|p34;#(liter_alf)}
  0
OBJECT_PTR
  5
2D6
102
{ACAD_REACTORS
330
29C
102
}
330
29C
1001
DCO15
1000
jet_dbsamples..."uwagi ogolne na arkuszu"(Arial_27)
1000
1naglowek
1000
1linia
1000
2linia
1000
3linia
1000
4linia
1000
5linia
1000
6linia
1000
7linia
1000
8linia
1000
9linia
1000
10linia
1000
11linia
1000
12linia
1040
1.0
1040
1.0
1040
0.0
1040
0.0
1040
0.0
1040
0.0
1040
0.0
1040
26.0
1071
        0
1071
      256
1071
        1
1071
        5
1071
        1
1000
ARIAL
1000
ByLayer
1000
{\fArial|b0|i0|c238|p34;#(1naglowek)\P#(1linia)\P#(2linia)\P#(3linia)\P#(4linia)\P#(5linia)\P#(6linia)\P#(7linia)\P#(8linia)\P#(9linia)\P#(10linia)\P#(11linia)\P#(12linia)}
  0
OBJECT_PTR
  5
2D5
102
{ACAD_REACTORS
330
29C
102
}
330
29C
1001
DCO15
1000
wkc...arkusz_nazwy(arkusz_nazwy_Arial35)
1000
Nazwa rysunku
1040
1.0
1040
1.0
1040
0.0
1040
0.0
1040
0.0
1040
0.0
1040
0.0
1040
35.0
1071
        0
1071
      256
1071
        1
1071
        5
1071
        1
1000
ARIAL
1000
ByLayer
1000
#(Nazwa rysunku)
  0
OBJECT_PTR
  5
2D4
102
{ACAD_REACTORS
330
29C
102
}
330
29C
1001
DCO15
1000
konstr...arkusz_nazwy(arkusz_nazwy_Arial_35_DwieLinie)
1000
Nazwa rysunku
1000
Nazwa rysunku_2
1040
1.0
1040
1.0
1040
0.0
1040
0.0
1040
0.0
1040
0.0
1040
0.0
1040
35.0
1071
        0
1071
      256
1071
        2
1071
        5
1071
        1
1000
ARIAL
1000
ByLayer
1000
#(Nazwa rysunku)\P#(Nazwa rysunku_2)
  0
OBJECT_PTR
  5
2D3
102
{ACAD_REACTORS
330
29C
102
}
330
29C
1001
DCO15
1000
wkc...arkusz_nazwy(arkusz_nazwy_Romans18)
1000
Nazwa rysunku
1040
1.0
1040
1.0
1040
0.0
1040
0.0
1040
0.0
1040
0.0
1040
0.0
1040
18.0
1071
        0
1071
      256
1071
        1
1071
        5
1071
        1
1000
ROMANS
1000
ByLayer
1000
#(Nazwa rysunku)
  0
OBJECT_PTR
  5
2D2
102
{ACAD_REACTORS
330
29C
102
}
330
29C
1001
DCO15
1000
konstr...arkusz_nazwy(arkusz_nazwy_Romans_18)
1000
Nazwa rysunku
1000
Nazwa rysunku_2
1040
1.0
1040
1.0
1040
0.0
1040
0.0
1040
0.0
1040
0.0
1040
0.0
1040
18.0
1071
        0
1071
      256
1071
        2
1071
        5
1071
        1
1000
ROMANS
1000
ByLayer
1000
#(Nazwa rysunku) #(Nazwa rysunku_2)
  0
OBJECT_PTR
  5
2D1
102
{ACAD_REACTORS
330
29C
102
}
330
29C
1001
DCO15
1000
jet_dbsamples...jednostki(jednostki-Arial18)
1000
jedn
1040
1.0
1040
1.0
1040
0.0
1040
0.0
1040
0.0
1040
0.0
1040
0.0
1040
18.0
1071
        0
1071
      256
1071
        7
1071
        5
1071
        1
1000
ARIAL
1000
ByLayer
1000
{\fArial|b0|i0|c238|p34;#(jedn)}
  0
OBJECT_PTR
  5
2D0
102
{ACAD_REACTORS
330
29C
102
}
330
29C
1001
DCO15
1000
jet_dbsamples...jednostki(jednostki-Arial30)
1000
jedn
1040
1.0
1040
1.0
1040
0.0
1040
0.0
1040
0.0
1040
0.0
1040
0.0
1040
30.0
1071
        0
1071
      256
1071
        7
1071
        5
1071
        1
1000
ARIAL
1000
ByLayer
1000
{\fArial|b0|i0|c238|p34;#(jedn)}
  0
OBJECT_PTR
  5
2CF
102
{ACAD_REACTORS
330
29C
102
}
330
29C
1001
DCO15
1000
jet_dbsamples...jednostki(jednostki-Romans16)
1000
jedn
1040
1.0
1040
1.0
1040
0.0
1040
0.0
1040
0.0
1040
0.0
1040
0.0
1040
16.0
1071
        0
1071
      256
1071
        7
1071
        5
1071
        1
1000
ARIAL
1000
ByLayer
1000
#(jedn)
  0
OBJECT_PTR
  5
2CE
102
{ACAD_REACTORS
330
29C
102
}
330
29C
1001
DCO15
1000
KONSTR...jednostki(jednostki_arial6.6kursywa)
1000
JEDNOSTKI
1040
1.0
1040
1.0
1040
0.0
1040
0.0
1040
0.0
1040
0.0
1040
0.0
1040
6.599999999999999
1071
        0
1071
      256
1071
        1
1071
        5
1071
        1
1000
ROMANS
1000
ByLayer
1000
{\fArial|b0|i1|c0|p34;#(JEDNOSTKI)}
  0
OBJECT_PTR
  5
2CD
102
{ACAD_REACTORS
330
29C
102
}
330
29C
1001
DCO15
1000
KONSTR...jednostki(jednostki_ROMANS11)
1000
JEDNOSTKI
1040
1.0
1040
1.0
1040
0.0
1040
0.0
1040
0.0
1040
0.0
1040
0.0
1040
11.0
1071
        0
1071
      256
1071
        1
1071
        5
1071
        1
1000
ROMANS
1000
ByLayer
1000
#(JEDNOSTKI)
  0
OBJECT_PTR
  5
2CC
102
{ACAD_REACTORS
330
29C
102
}
330
29C
1001
DCO15
1000
KONSTR...jednostki(jednostki_ROMANS15)
1000
JEDNOSTKI
1040
1.0
1040
1.0
1040
0.0
1040
0.0
1040
0.0
1040
0.0
1040
0.0
1040
15.0
1071
        0
1071
      256
1071
        1
1071
        5
1071
        1
1000
ROMANS
1000
ByLayer
1000
#(JEDNOSTKI)
  0
OBJECT_PTR
  5
2CB
102
{ACAD_REACTORS
330
29C
102
}
330
29C
1001
DCO15
1000
ELE...tbl_jednostki(jednostki_Romans30)
1000
1
1040
1.0
1040
1.0
1040
0.0
1040
0.0
1040
0.0
1040
0.0
1040
0.0
1040
30.0
1071
        0
1071
      256
1071
        1
1071
        5
1071
        1
1000
ROMANS
1000
ByLayer
1000
#(1)
  0
OBJECT_PTR
  5
2CA
102
{ACAD_REACTORS
330
29C
102
}
330
29C
1001
DCO15
1000
KONSTR...jednostki(jednostki_Romans7)
1000
JEDNOSTKI
1040
1.0
1040
1.0
1040
0.0
1040
0.0
1040
0.0
1040
0.0
1040
0.0
1040
7.0
1071
        0
1071
      256
1071
        1
1071
        5
1071
        1
1000
ROMANS
1000
ByLayer
1000
#(JEDNOSTKI)
  0
OBJECT_PTR
  5
2C9
102
{ACAD_REACTORS
330
29C
102
}
330
29C
1001
DCO15
1000
KONSTR...jednostki(jednostkiLabel1)
1000
JEDNOSTKI
1040
1.0
1040
1.0
1040
0.0
1040
0.0
1040
0.0
1040
0.0
1040
0.0
1040
11.0
1071
        0
1071
      256
1071
        7
1071
        5
1071
        1
1000
ROMANS
1000
ByLayer
1000
#(JEDNOSTKI)
  0
OBJECT_PTR
  5
2C8
102
{ACAD_REACTORS
330
29C
102
}
330
29C
1001
DCO15
1000
KONSTR...jednostki(jednostkiRomans22)
1000
JEDNOSTKI
1040
1.0
1040
1.0
1040
0.0
1040
0.0
1040
0.0
1040
0.0
1040
0.0
1040
22.4
1071
        0
1071
      256
1071
        7
1071
        5
1071
        1
1000
ROMANS
1000
ByLayer
1000
#(JEDNOSTKI)
  0
OBJECT_PTR
  5
2C7
102
{ACAD_REACTORS
330
29C
102
}
330
29C
1001
DCO15
1000
KONSTR...konstr_drew(konstr_drew_arial6.6kursywa)
1000
1L
1000
2L
1000
3L
1000
4L
1000
5L
1040
1.0
1040
1.0
1040
0.0
1040
0.0
1040
0.0
1040
0.0
1040
0.0
1040
6.599999999999999
1071
        0
1071
      256
1071
        1
1071
        5
1071
        1
1000
ROMANS
1000
ByLayer
1000
{\fArial|b0|i1|c238|p34;#(1L)\P#(2L)\P#(3L)\P#(4L)\P#(5L)}
  0
OBJECT_PTR
  5
2C6
102
{ACAD_REACTORS
330
29C
102
}
330
29C
1001
DCO15
1000
KONSTR...konstr_drew(konstr_drew_romans7)
1000
1L
1000
2L
1000
3L
1000
4L
1000
5L
1000
6L
1040
1.0
1040
1.0
1040
0.0
1040
0.0
1040
0.0
1040
0.0
1040
0.0
1040
7.0
1071
        0
1071
      256
1071
        1
1071
        5
1071
        1
1000
ROMANS
1000
ByLayer
1000
#(1L)\P#(2L)\P#(3L)\P#(4L)\P#(5L)\P#(6L)
  0
OBJECT_PTR
  5
2C5
102
{ACAD_REACTORS
330
29C
102
}
330
29C
1001
DCO15
1000
KONSTR...konstr_stal(konstr_stalarial9kursywa)
1000
1L
1000
2L
1000
3L
1000
4L
1040
1.0
1040
1.0
1040
0.0
1040
0.0
1040
0.0
1040
0.0
1040
0.0
1040
9.0
1071
        0
1071
      256
1071
        1
1071
        5
1071
        1
1000
ROMANS
1000
ByLayer
1000
{\fArial|b0|i1|c238|p34;#(1L)\P#(2L)\P#(3L)\P#(4L)}
  0
OBJECT_PTR
  5
2C4
102
{ACAD_REACTORS
330
29C
102
}
330
29C
1001
DCO15
1000
KONSTR...konstr_stal(konstr_stalLabel1)
1000
1L
1000
2L
1000
3L
1000
4L
1040
1.0
1040
1.0
1040
0.0
1040
0.0
1040
0.0
1040
0.0
1040
0.0
1040
6.0
1071
        0
1071
      256
1071
        1
1071
        5
1071
        1
1000
ROMANS
1000
ByLayer
1000
#(1L)\P#(2L)\P#(3L)\P#(4L)
  0
OBJECT_PTR
  5
2C3
102
{ACAD_REACTORS
330
29C
102
}
330
29C
1001
DCO15
1000
KONSTR...konstr_stal(konstr_stalLabel2)
1000
1L
1000
2L
1000
3L
1000
4L
1040
1.0
1040
1.0
1040
0.0
1040
0.0
1040
0.0
1040
0.0
1040
0.0
1040
6.0
1071
        0
1071
      256
1071
        1
1071
        5
1071
        1
1000
ROMANS
1000
ByLayer
1000
#(1L)\P#(2L)\P#(3L)\P#(4L)
  0
OBJECT_PTR
  5
2C2
102
{ACAD_REACTORS
330
29C
102
}
330
29C
1001
DCO15
1000
jet_dbsamples...miesiace(miesiace-Romans17)
1000
nzw_mies
1040
1.0
1040
1.0
1040
0.0
1040
0.0
1040
0.0
1040
0.0
1040
0.0
1040
17.0
1071
        0
1071
      256
1071
        1
1071
        5
1071
        1
1000
ARIAL
1000
ByLayer
1000
#(nzw_mies)
  0
OBJECT_PTR
  5
2C1
102
{ACAD_REACTORS
330
29C
102
}
330
29C
1001
DCO15
1000
jet_dbsamples...pomieszczenia(pomieszczenia-Arial 15)
1000
nazwa
1040
1.0
1040
1.0
1040
0.0
1040
0.0
1040
0.0
1040
0.0
1040
0.0
1040
15.0
1071
        0
1071
      256
1071
        8
1071
        5
1071
        1
1000
ARIAL
1000
ByLayer
1000
{\fArial|b0|i0|c238|p34;#(nazwa)}
  0
OBJECT_PTR
  5
2C0
102
{ACAD_REACTORS
330
29C
102
}
330
29C
1001
DCO15
1000
jet_dbsamples...pomieszczenia(pomieszczenia-Romans17)
1000
nazwa
1040
1.0
1040
1.0
1040
0.0
1040
0.0
1040
0.0
1040
0.0
1040
0.0
1040
17.0
1071
        0
1071
      256
1071
        7
1071
        5
1071
        1
1000
ARIAL
1000
ByLayer
1000
#(nazwa)
  0
OBJECT_PTR
  5
2BF
102
{ACAD_REACTORS
330
29C
102
}
330
29C
1001
DCO15
1000
jet_dbsamples..."elementy wiezby"(romans16)
1000
nazw_el_wiezb
1040
1.0
1040
1.0
1040
0.0
1040
0.0
1040
0.0
1040
0.0
1040
0.0
1040
16.0
1071
        0
1071
      256
1071
        1
1071
        5
1071
        1
1000
ARIAL
1000
ByLayer
1000
#(nazw_el_wiezb)
  0
OBJECT_PTR
  5
2BE
102
{ACAD_REACTORS
330
29C
102
}
330
29C
1001
DCO15
1000
jet_dbsamples..."uwagi ogolne na arkuszu"(Romans_17)
1000
1naglowek
1000
1linia
1000
2linia
1000
3linia
1000
4linia
1000
5linia
1000
6linia
1000
7linia
1000
8linia
1000
9linia
1000
10linia
1000
11linia
1000
12linia
1040
1.0
1040
1.0
1040
0.0
1040
0.0
1040
0.0
1040
0.0
1040
0.0
1040
17.0
1071
        0
1071
      256
1071
        1
1071
        5
1071
        1
1000
ARIAL
1000
ByLayer
1000
#(1naglowek)\P#(1linia)\P#(2linia)\P#(3linia)\P#(4linia)\P#(5linia)\P#(6linia)\P#(7linia)\P#(8linia)\P#(9linia)\P#(10linia)\P#(11linia)\P#(12linia)
  0
OBJECT_PTR
  5
2BD
102
{ACAD_REACTORS
330
29C
102
}
330
29C
1001
DCO15
1000
KONSTR...schematy(schematy_arial15)
1000
1L
1000
2L
1000
3L
1000
4L
1000
5L
1040
1.0
1040
1.0
1040
0.0
1040
0.0
1040
0.0
1040
0.0
1040
0.0
1040
15.0
1071
        0
1071
      256
1071
        1
1071
        5
1071
        1
1000
ROMANS
1000
ByLayer
1000
{\fArial|b0|i0|c238|p34;#(1L)\P#(2L)\P#(3L)\P#(4L)\P#(5L)\fArial|b0|i0|c0|p34;}
  0
OBJECT_PTR
  5
2BC
102
{ACAD_REACTORS
330
29C
102
}
330
29C
1001
DCO15
1000
KONSTR...schematy(schematy_arial20)
1000
1L
1000
2L
1000
3L
1000
4L
1000
5L
1040
1.0
1040
1.0
1040
0.0
1040
0.0
1040
0.0
1040
0.0
1040
0.0
1040
22.0
1071
        0
1071
      256
1071
        1
1071
        5
1071
        1
1000
ROMANS
1000
ByLayer
1000
{\fArial|b0|i0|c238|p34;#(1L)\P#(2L)\P#(3L)\P#(4L)\P#(5L)}
  0
OBJECT_PTR
  5
2BB
102
{ACAD_REACTORS
330
29C
102
}
330
29C
1001
DCO15
1000
KONSTR...schematy(schematy_arial37)
1000
1L
1000
2L
1000
3L
1000
4L
1000
5L
1040
1.0
1040
1.0
1040
0.0
1040
0.0
1040
0.0
1040
0.0
1040
0.0
1040
37.0
1071
        0
1071
      256
1071
        1
1071
        5
1071
        1
1000
ROMANS
1000
ByLayer
1000
{\fArial|b0|i0|c238|p34;#(1L)\P#(2L)\P#(3L)\P#(4L)\P#(5L)}
  0
OBJECT_PTR
  5
2BA
102
{ACAD_REACTORS
330
29C
102
}
330
29C
1001
DCO15
1000
KONSTR...schematy(schematy_romans15)
1000
1L
1000
2L
1000
3L
1000
4L
1000
5L
1040
1.0
1040
1.0
1040
0.0
1040
0.0
1040
0.0
1040
0.0
1040
0.0
1040
15.0
1071
        0
1071
      256
1071
        1
1071
        5
1071
        1
1000
ROMANS
1000
ByLayer
1000
#(1L)\P#(2L)\P#(3L)\P#(4L)\P#(5L)
  0
OBJECT_PTR
  5
2B9
102
{ACAD_REACTORS
330
29C
102
}
330
29C
1001
DCO15
1000
KONSTR...schematy(schematy_romans15Right)
1000
1L
1000
2L
1000
3L
1000
4L
1000
5L
1040
1.0
1040
1.0
1040
0.0
1040
0.0
1040
0.0
1040
0.0
1040
0.0
1040
15.0
1071
        0
1071
      256
1071
        3
1071
        5
1071
        1
1000
ROMANS
1000
ByLayer
1000
#(1L)\P#(2L)\P#(3L)\P#(4L)\P#(5L)
  0
OBJECT_PTR
  5
2B8
102
{ACAD_REACTORS
330
29C
102
}
330
29C
1001
DCO15
1000
jet_dbsamples...stolarka(stolarka-Arial14)
1000
STOL_TKST
1000
STOL_TKST_2linia
1040
1.0
1040
1.0
1040
0.0
1040
0.0
1040
0.0
1040
0.0
1040
0.0
1040
14.0
1071
        0
1071
      256
1071
        1
1071
        5
1071
        1
1000
ARIAL
1000
ByLayer
1000
{\fArial|b0|i0|c238|p34;#(STOL_TKST)\P#(STOL_TKST_2linia)}
  0
OBJECT_PTR
  5
2B7
102
{ACAD_REACTORS
330
29C
102
}
330
29C
1001
DCO15
1000
jet_dbsamples...stolarka(stolarka-Romans1607)
1000
STOL_TKST
1000
STOL_TKST_2linia
1040
1.0
1040
1.0
1040
0.0
1040
0.0
1040
0.0
1040
0.0
1040
0.0
1040
16.0
1071
        0
1071
      256
1071
        5
1071
        5
1071
        1
1000
ARIAL
1000
ByLayer
1000
#(STOL_TKST)\P#(STOL_TKST_2linia)
  0
OBJECT_PTR
  5
2B6
102
{ACAD_REACTORS
330
29C
102
}
330
29C
1001
DCO15
1000
jet_dbsamples...stolarka(stolarka-Romans1608)
1000
STOL_TKST
1000
STOL_TKST_2linia
1040
1.0
1040
1.0
1040
0.0
1040
0.0
1040
0.0
1040
0.0
1040
0.0
1040
16.0
1071
        0
1071
      256
1071
        5
1071
        5
1071
        1
1000
ROMANS
1000
ByLayer
1000
#(STOL_TKST)\P#(STOL_TKST_2linia)
  0
OBJECT_PTR
  5
2B5
102
{ACAD_REACTORS
330
29C
102
}
330
29C
1001
DCO15
1000
jet_dbsamples...stolarka(stolarkaLabel1)
1000
STOL_TKST
1000
STOL_TKST_2linia
1040
1.0
1040
1.0
1040
0.0
1040
0.0
1040
0.0
1040
0.0
1040
0.0
1040
25.0
1071
        0
1071
      256
1071
        1
1071
        5
1071
        1
1000
ROMANS
1000
ByLayer
1000
{\fArial|b0|i0|c238|p34;#(STOL_TKST)\P#(STOL_TKST_2linia)}
  0
OBJECT_PTR
  5
2B4
102
{ACAD_REACTORS
330
29C
102
}
330
29C
1001
DCO15
1000
KONSTR...szczegoly(szczegoly_arial12kursywa)
1000
1L
1000
2L
1000
3L
1000
4L
1000
5L
1000
6L
1040
1.0
1040
1.0
1040
0.0
1040
0.0
1040
0.0
1040
0.0
1040
0.0
1040
12.0
1071
        0
1071
      256
1071
        1
1071
        5
1071
        1
1000
ROMANS
1000
ByLayer
1000
{\fArial|b0|i1|c238|p34;#(1L)\P#(2L)\P#(3L)\P#(4L)\P#(5L)\P#(6L)}
  0
OBJECT_PTR
  5
2B3
102
{ACAD_REACTORS
330
29C
102
}
330
29C
1001
DCO15
1000
KONSTR...szczegoly(szczegoly_arial6.6kursRight)
1000
1L
1000
2L
1000
3L
1000
4L
1000
5L
1000
6L
1040
1.0
1040
1.0
1040
0.0
1040
0.0
1040
0.0
1040
0.0
1040
0.0
1040
6.599999999999999
1071
        0
1071
      256
1071
        3
1071
        5
1071
        1
1000
ROMANS
1000
ByLayer
1000
{\fArial|b0|i1|c238|p34;#(1L)\P#(2L)\P#(3L)\P#(4L)\P#(5L)\P#(6L)}
  0
OBJECT_PTR
  5
2B2
102
{ACAD_REACTORS
330
29C
102
}
330
29C
1001
DCO15
1000
KONSTR...szczegoly(szczegoly_arial6.6kursywa)
1000
1L
1000
2L
1000
3L
1000
4L
1000
5L
1000
6L
1040
1.0
1040
1.0
1040
0.0
1040
0.0
1040
0.0
1040
0.0
1040
0.0
1040
6.599999999999999
1071
        0
1071
      256
1071
        1
1071
        5
1071
        1
1000
ROMANS
1000
ByLayer
1000
{\fArial|b0|i1|c238|p34;#(1L)\P#(2L)\P#(3L)\P#(4L)\P#(5L)\P#(6L)}
  0
OBJECT_PTR
  5
2B1
102
{ACAD_REACTORS
330
29C
102
}
330
29C
1001
DCO15
1000
KONSTR...szczegoly(szczegoly_Romans7)
1000
1L
1000
2L
1000
3L
1000
4L
1000
5L
1000
6L
1040
1.0
1040
1.0
1040
0.0
1040
0.0
1040
0.0
1040
0.0
1040
0.0
1040
7.0
1071
        0
1071
      256
1071
        1
1071
        5
1071
        1
1000
ROMANS
1000
ByLayer
1000
#(1L)\P#(2L)\P#(3L)\P#(4L)\P#(5L)\P#(6L)
  0
OBJECT_PTR
  5
2B0
102
{ACAD_REACTORS
330
29C
102
}
330
29C
1001
DCO15
1000
KONSTR...szczegoly(szczegoly_romans7_right)
1000
1L
1000
2L
1000
3L
1000
4L
1000
5L
1000
6L
1040
1.0
1040
1.0
1040
0.0
1040
0.0
1040
0.0
1040
0.0
1040
0.0
1040
7.0
1071
        0
1071
      256
1071
        3
1071
        5
1071
        1
1000
ROMANS
1000
ByLayer
1000
#(1L)\P#(2L)\P#(3L)\P#(4L)\P#(5L)\P#(6L)
  0
OBJECT_PTR
  5
2AF
102
{ACAD_REACTORS
330
29C
102
}
330
29C
1001
DCO15
1000
ELE..."tbl_nazwy rys"(tbl_nazwy_rys_Arial37)
1000
2
1040
1.0
1040
1.0
1040
0.0
1040
0.0
1040
0.0
1040
0.0
1040
0.0
1040
37.0
1071
        0
1071
      256
1071
        7
1071
        5
1071
        1
1000
ROMANS
1000
ByLayer
1000
#(2)
  0
OBJECT_PTR
  5
2AE
102
{ACAD_REACTORS
330
29C
102
}
330
29C
1001
DCO15
1000
ELE...tbl_opisy(tbl_opisy_Romans_poch20)
1000
1
1000
2
1000
3
1000
4
1040
1.0
1040
1.0
1040
0.0
1040
0.0
1040
0.0
1040
0.0
1040
0.0
1040
20.0
1071
        0
1071
      256
1071
        1
1071
        5
1071
        1
1000
ROMANS
1000
ByLayer
1000
#(1)\P#(2)\P#(3)\P#(4)
  0
OBJECT_PTR
  5
2AD
102
{ACAD_REACTORS
330
29C
102
}
330
29C
1001
DCO15
1000
ELE...tbl_opisy(tbl_opisy_RomansPoch14)
1000
1
1000
2
1000
3
1000
4
1040
1.0
1040
1.0
1040
0.0
1040
0.0
1040
0.0
1040
0.0
1040
0.0
1040
14.4
1071
        0
1071
      256
1071
        1
1071
        5
1071
        1
1000
ROMANS
1000
ByLayer
1000
#(1)\P#(2)\P#(3)\P#(4)
  0
OBJECT_PTR
  5
2AC
102
{ACAD_REACTORS
330
29C
102
}
330
29C
1001
DCO15
1000
ELE...tbl_opisy(tbl_opisy_RomansPoch20_R)
1000
1
1000
2
1000
3
1000
4
1040
1.0
1040
1.0
1040
0.0
1040
0.0
1040
0.0
1040
0.0
1040
0.0
1040
20.0
1071
        0
1071
      256
1071
        3
1071
        5
1071
        1
1000
ROMANS
1000
ByLayer
1000
#(1)\P#(2)\P#(3)\P#(4)
  0
OBJECT_PTR
  5
2AB
102
{ACAD_REACTORS
330
29C
102
}
330
29C
1001
DCO15
1000
jet_dbsamples...tbl_PRZEGRODY(tbl_PRZEGRODY)
1000
nazwa przegrody
1000
1w
1000
2w
1000
3w
1000
4w
1000
5w
1000
6w
1000
7w
1000
8w
1000
9w
1000
10w
1000
11w
1000
12w
1000
13w
1000
14w
1000
15w
1000
16w
1040
1.0
1040
1.0
1040
0.0
1040
0.0
1040
0.0
1040
0.0
1040
0.0
1040
17.0
1071
        0
1071
      256
1071
        1
1071
        5
1071
        1
1000
ROMANS
1000
ByLayer
1000
{\Fromans.shx|c238;\L\C2;#(nazwa przegrody)\C4;\P}#(1w)\P#(2w)\P#(3w)\P#(4w)\P#(5w)\P#(6w)\P#(7w)\P#(8w)\P#(9w)\P#(10w)\P#(11w)\P#(12w)\P#(13w)\P#(14w)\P#(15w)\P#(16w)
  0
OBJECT_PTR
  5
2AA
102
{ACAD_REACTORS
330
29C
102
}
330
29C
1001
DCO15
1000
wkc...tbl_uwagi_co(tbl_uwagi_coRomans20Right)
1000
1L
1000
2L
1000
3L
1000
4L
1000
5L
1040
1.0
1040
1.0
1040
0.0
1040
0.0
1040
0.0
1040
0.0
1040
0.0
1040
20.0
1071
        0
1071
      256
1071
        3
1071
        5
1071
        1
1000
ROMANS
1000
ByLayer
1000
{\Fromans.shx|c238;#(1L)\P#(2L)\P#(3L)\P#(4L)\P#(5L)}
  0
OBJECT_PTR
  5
2A9
102
{ACAD_REACTORS
330
29C
102
}
330
29C
1001
DCO15
1000
jet_dbsamples..."uwagi ogolne na arkuszu"(uwag_og_na_ark_Arial18)
1000
1naglowek
1000
1linia
1000
2linia
1000
3linia
1000
4linia
1000
5linia
1000
6linia
1000
7linia
1000
8linia
1000
9linia
1000
10linia
1000
11linia
1000
12linia
1040
1.0
1040
1.0
1040
0.0
1040
0.0
1040
0.0
1040
0.0
1040
0.0
1040
18.0
1071
        0
1071
      256
1071
        1
1071
        5
1071
        1
1000
ROMANS
1000
ByLayer
1000
{\fArial|b0|i0|c238|p34;#(1naglowek)\P#(1linia)\P#(2linia)\P#(3linia)\P#(4linia)\P#(5linia)\P#(6linia)\P#(7linia)\P#(8linia)\P#(9linia)\P#(10linia)\P#(11linia)\P#(12linia)}
  0
OBJECT_PTR
  5
2A8
102
{ACAD_REACTORS
330
29C
102
}
330
29C
1001
DCO15
1000
wkc...tbl_uwagi_co(uwagi_co_Arial37)
1000
1L
1000
2L
1000
3L
1000
4L
1000
5L
1040
1.0
1040
1.0
1040
0.0
1040
0.0
1040
0.0
1040
0.0
1040
0.0
1040
37.0
1071
        0
1071
      256
1071
        1
1071
        5
1071
        1
1000
ROMANS
1000
ByLayer
1000
#(1L)\P#(2L)\P#(3L)\P#(4L)\P#(5L){\fArial|b0|i0|c0|p34;}
  0
OBJECT_PTR
  5
2A7
102
{ACAD_REACTORS
330
29C
102
}
330
29C
1001
DCO15
1000
wkc...tbl_uwagi_co(uwagi_co_Romans20)
1000
1L
1000
2L
1000
3L
1000
4L
1000
5L
1040
1.0
1040
1.0
1040
0.0
1040
0.0
1040
0.0
1040
0.0
1040
0.0
1040
20.0
1071
        0
1071
      256
1071
        1
1071
        5
1071
        1
1000
ROMANS
1000
ByLayer
1000
{\Fromans.shx|c238;#(1L)\P#(2L)\P#(3L)\P#(4L)\P#(5L)}
  0
OBJECT_PTR
  5
2A6
102
{ACAD_REACTORS
330
29C
102
}
330
29C
1001
DCO15
1000
KONSTR...uwagi_na_schematach(uwagi_na_schematachLabel1)
1000
1L
1000
2L
1000
3L
1000
4L
1000
5L
1000
6L
1000
7L
1000
8L
1000
9L
1000
10L
1000
11L
1000
12L
1040
1.0
1040
1.0
1040
0.0
1040
0.0
1040
0.0
1040
0.0
1040
0.0
1040
22.4
1071
        0
1071
      256
1071
        1
1071
        5
1071
        1
1000
ROMANS
1000
ByLayer
1000
{\Fromans.shx|c238;#(1L)\P#(2L)\P#(3L)\P#(4L)\P#(5L)\P#(6L)\P#(7L)\P#(8L)\P#(9L)\P#(10L)\P#(11L)\P#(12L)}
  0
OBJECT_PTR
  5
2A5
102
{ACAD_REACTORS
330
29C
102
}
330
29C
1001
DCO15
1000
KONSTR...uwagi_na_schematach(uwagi_na_schematachLabel2)
1000
1L
1000
2L
1000
3L
1000
4L
1000
5L
1000
6L
1000
7L
1000
8L
1000
9L
1000
10L
1000
11L
1000
12L
1040
1.0
1040
1.0
1040
0.0
1040
0.0
1040
0.0
1040
0.0
1040
0.0
1040
35.0
1071
        0
1071
      256
1071
        1
1071
        5
1071
        1
1000
ROMANS
1000
ByLayer
1000
{\fArial|b0|i1|c0|p34;#(1L)\P#(2L)\P#(3L)\P#(4L)\P#(5L)\P#(6L)\P#(7L)\P#(8L)\P#(9L)\P#(10L)\P#(11L)\P#(12L)}
  0
OBJECT_PTR
  5
2A4
102
{ACAD_REACTORS
330
29C
102
}
330
29C
1001
DCO15
1000
KONSTR...uwagi_na_schematach(uwagi_na_schematachRight)
1000
1L
1000
2L
1000
3L
1000
4L
1000
5L
1000
6L
1000
7L
1000
8L
1000
9L
1000
10L
1000
11L
1000
12L
1040
1.0
1040
1.0
1040
0.0
1040
0.0
1040
0.0
1040
0.0
1040
0.0
1040
22.4
1071
        0
1071
      256
1071
        3
1071
        5
1071
        1
1000
ROMANS
1000
ByLayer
1000
{\Fromans.shx|c238;#(1L)\P#(2L)\P#(3L)\P#(4L)\P#(5L)\P#(6L)\P#(7L)\P#(8L)\P#(9L)\P#(10L)\P#(11L)\P#(12L)}
  0
OBJECT_PTR
  5
2A3
102
{ACAD_REACTORS
330
29C
102
}
330
29C
1001
DCO15
1000
wkc...tbl_uwagi_wodkan(uwagi_wodkan_Romans18)
1000
1L
1000
2L
1000
3L
1000
4L
1000
5L
1040
1.0
1040
1.0
1040
0.0
1040
0.0
1040
0.0
1040
0.0
1040
0.0
1040
20.0
1071
        0
1071
      256
1071
        1
1071
        5
1071
        1
1000
ROMANS
1000
ByLayer
1000
#(1L)\P#(2L)\P#(3L)\P#(4L)\P#(5L)
  0
OBJECT_PTR
  5
2A2
102
{ACAD_REACTORS
330
29C
102
}
330
29C
1001
DCO15
1000
wkc...tbl_uwagi_wodkan(uwagi_wodkanARIAL37)
1000
1L
1000
2L
1000
3L
1000
4L
1000
5L
1040
1.0
1040
1.0
1040
0.0
1040
0.0
1040
0.0
1040
0.0
1040
0.0
1040
37.0
1071
        0
1071
      256
1071
        1
1071
        5
1071
        1
1000
ROMANS
1000
ByLayer
1000
#(1L)\P#(2L)\P#(3L)\P#(4L)\P#(5L)
  0
OBJECT_PTR
  5
2A1
102
{ACAD_REACTORS
330
29C
102
}
330
29C
1001
DCO15
1000
wkc...tbl_uwagi_wodkan(uwagi_wodkanRomans20_Right)
1000
1L
1000
2L
1000
3L
1000
4L
1000
5L
1040
1.0
1040
1.0
1040
0.0
1040
0.0
1040
0.0
1040
0.0
1040
0.0
1040
20.0
1071
        0
1071
      256
1071
        3
1071
        5
1071
        1
1000
ROMANS
1000
ByLayer
1000
{\Fromans.shx|c238;#(1L)\P#(2L)\P#(3L)\P#(4L)\P#(5L)}
  0
OBJECT_PTR
  5
2A0
102
{ACAD_REACTORS
330
29C
102
}
330
29C
1001
DCO15
1000
KONSTR...zbroj_plyty(zbroj_plyty_arial22)
1000
1L
1000
2L
1000
3L
1040
1.0
1040
1.0
1040
0.0
1040
0.0
1040
0.0
1040
0.0
1040
0.0
1040
22.0
1071
        0
1071
      256
1071
        1
1071
        5
1071
        1
1000
ROMANS
1000
ByLayer
1000
{\fArial|b0|i0|c238|p34;#(1L)\P#(2L)\P#(3L)}
  0
OBJECT_PTR
  5
29F
102
{ACAD_REACTORS
330
29C
102
}
330
29C
1001
DCO15
1000
KONSTR...zbroj_plyty(zbroj_plyty_romans12)
1000
1L
1000
2L
1000
3L
1040
1.0
1040
1.0
1040
0.0
1040
0.0
1040
0.0
1040
0.0
1040
0.0
1040
11.0
1071
        0
1071
      256
1071
        1
1071
        5
1071
        1
1000
ROMANS
1000
ByLayer
1000
#(1L)\P#(2L)\P#(3L)
  0
OBJECT_PTR
  5
29E
102
{ACAD_REACTORS
330
29C
102
}
330
29C
1001
DCO15
1000
KONSTR...zbroj_plyty(zbroj_plyty_romans12Right)
1000
1L
1000
2L
1000
3L
1040
1.0
1040
1.0
1040
0.0
1040
0.0
1040
0.0
1040
0.0
1040
0.0
1040
11.0
1071
        0
1071
      256
1071
        3
1071
        5
1071
        1
1000
ROMANS
1000
ByLayer
1000
#(1L)\P#(2L)\P#(3L)
  0
OBJECT_PTR
  5
29D
102
{ACAD_REACTORS
330
29C
102
}
330
29C
1001
DCO15
1000
KONSTR...zbroj_plyty(zbroj_plyty_romans9)
1000
1L
1000
2L
1000
3L
1040
1.0
1040
1.0
1040
0.0
1040
0.0
1040
0.0
1040
0.0
1040
0.0
1040
9.0
1071
        0
1071
      256
1071
        1
1071
        5
1071
        1
1000
ROMANS
1000
ByLayer
1000
#(1L)\P#(2L)\P#(3L)
  0
OBJECT_PTR
  5
29B
102
{ACAD_REACTORS
330
27D
102
}
330
27D
1001
DCO15
1000
jet_dbsamples..."elementy wiezby"(_elementy_wiezby_Link1)
1000
IDENTYFIKATOR
1000

1000

1070
     4
1070
     0
1070
     0
1070
     0
1070
  1024
  0
OBJECT_PTR
  5
29A
102
{ACAD_REACTORS
330
27D
102
}
330
27D
1001
DCO15
1000
jet_dbsamples..."materialy przegrod pl"(_materialy_przegrod_pl_Link1)
1000
IDENTYFIKATOR
1000

1000

1070
     4
1070
     0
1070
     0
1070
     0
1070
  1024
  0
OBJECT_PTR
  5
299
102
{ACAD_REACTORS
330
27D
102
}
330
27D
1001
DCO15
1000
jet_dbsamples..."nazwy przegrod pl"(_nazwy_przegrod_pl_Link1)
1000
IDENTYFIKATOR
1000

1000

1070
     4
1070
     0
1070
     0
1070
     0
1070
  1024
  0
OBJECT_PTR
  5
298
102
{ACAD_REACTORS
330
27D
102
}
330
27D
1001
DCO15
1000
jet_dbsamples..."nazwy rysunkow"(_nazwy_rysunkow_Arial37)
1000
IDENTYFIKATOR
1000

1000

1070
     4
1070
     0
1070
     0
1070
     0
1070
  1024
  0
OBJECT_PTR
  5
297
102
{ACAD_REACTORS
330
27D
102
}
330
27D
1001
DCO15
1000
jet_dbsamples..."opisy rozne II"(_opisy_rozne_II_Link1)
1000
"opis różny"
1000
1250
1000
ASCII
1070
    12
1070
   200
1070
     0
1070
     0
1070
  1024
  0
OBJECT_PTR
  5
296
102
{ACAD_REACTORS
330
27D
102
}
330
27D
1001
DCO15
1000
jet_dbsamples..."opisy rozne II"(_opisy_rozne_II_Link2)
1000
IDENTYFIKATOR
1000

1000

1070
     4
1070
     0
1070
     0
1070
     0
1070
  1024
  0
OBJECT_PTR
  5
295
102
{ACAD_REACTORS
330
27D
102
}
330
27D
1001
DCO15
1000
jet_dbsamples..."posadzki do zestawienia pomieszczen"(_posadzki_do_zestawienia_pomieszczen_Link1)
1000
IDENTYFIKATOR
1000

1000

1070
     4
1070
     0
1070
     0
1070
     0
1070
  1024
  0
OBJECT_PTR
  5
294
102
{ACAD_REACTORS
330
27D
102
}
330
27D
1001
DCO15
1000
jet_dbsamples..."rozne opisy rys"(_rozne_opisy_rys_Link1)
1000
IDENTYFIKATOR
1000

1000

1070
     4
1070
     0
1070
     0
1070
     0
1070
  1024
  0
OBJECT_PTR
  5
293
102
{ACAD_REACTORS
330
27D
102
}
330
27D
1001
DCO15
1000
jet_dbsamples..."tabelka - inform i etykiety"(_tabelka_-_inform_i_etykiety_Link1)
1000
IDENTYFIKATOR
1000

1000

1070
     4
1070
     0
1070
     0
1070
     0
1070
  1024
  0
OBJECT_PTR
  5
292
102
{ACAD_REACTORS
330
27D
102
}
330
27D
1001
DCO15
1000
ELE..."tbl_nazwy rys"(_tbl_nazwy_rys_Link1)
1000
"1"
1000

1000

1070
     4
1070
     0
1070
     0
1070
     0
1070
  1024
  0
OBJECT_PTR
  5
291
102
{ACAD_REACTORS
330
27D
102
}
330
27D
1001
DCO15
1000
jet_dbsamples..."uwagi ogolne na arkuszu"(_uwagi_ogolne_na_arkuszu_Link1)
1000
IDENTYFIKATOR
1000

1000

1070
     4
1070
     0
1070
     0
1070
     0
1070
  1024
  0
OBJECT_PTR
  5
290
102
{ACAD_REACTORS
330
27D
102
}
330
27D
1001
DCO15
1000
jet_dbsamples..."~TMPCLP122371"(_~TMPCLP122371_Link1)
1000
IDENTYFIKATOR
1000

1000

1070
     4
1070
     0
1070
     0
1070
     0
1070
  1024
1000
GUPA
1000
1250
1000
ASCII
1070
    12
1070
    50
1070
     0
1070
     0
1070
  1024
1000
NAZW_MAT
1000
1250
1000
ASCII
1070
    12
1070
   100
1070
     0
1070
     0
1070
  1024
  0
OBJECT_PTR
  5
28F
102
{ACAD_REACTORS
330
27D
102
}
330
27D
1001
DCO15
1000
jet_dbsamples...ALFABET(ALFABETLink1)
1000
IDENTYFIKATOR
1000

1000

1070
     4
1070
     0
1070
     0
1070
     0
1070
  1024
  0
OBJECT_PTR
  5
28E
102
{ACAD_REACTORS
330
27D
102
}
330
27D
1001
DCO15
1000
wkc...arkusz_nazwy(arkusz_nazwyLink1)
1000
IDENTYFIKATOR
1000

1000

1070
     4
1070
     0
1070
     0
1070
     0
1070
  1024
  0
OBJECT_PTR
  5
28D
102
{ACAD_REACTORS
330
27D
102
}
330
27D
1001
DCO15
1000
konstr...arkusz_nazwy(arkusz_nazwyLink2)
1000
IDENTYFIKATOR
1000

1000

1070
     4
1070
     0
1070
     0
1070
     0
1070
  1024
  0
OBJECT_PTR
  5
28C
102
{ACAD_REACTORS
330
27D
102
}
330
27D
1001
DCO15
1000
jet_dbsamples...jednostki(jednostkiLink1)
1000
IDENTYFIKATOR
1000

1000

1070
     4
1070
     0
1070
     0
1070
     0
1070
  1024
  0
OBJECT_PTR
  5
28B
102
{ACAD_REACTORS
330
27D
102
}
330
27D
1001
DCO15
1000
KONSTR...konstr_drew(konstr_drewLink1)
1000
IDENTYFIKATOR
1000

1000

1070
     4
1070
     0
1070
     0
1070
     0
1070
  1024
  0
OBJECT_PTR
  5
28A
102
{ACAD_REACTORS
330
27D
102
}
330
27D
1001
DCO15
1000
KONSTR...konstr_stal(konstr_stalLink1)
1000
IDENTYFIKATOR
1000

1000

1070
     4
1070
     0
1070
     0
1070
     0
1070
  1024
  0
OBJECT_PTR
  5
289
102
{ACAD_REACTORS
330
27D
102
}
330
27D
1001
DCO15
1000
jet_dbsamples...miesiace(miesiaceLink1)
1000
IDENTYFIKATOR
1000

1000

1070
     4
1070
     0
1070
     0
1070
     0
1070
  1024
  0
OBJECT_PTR
  5
288
102
{ACAD_REACTORS
330
27D
102
}
330
27D
1001
DCO15
1000
jet_dbsamples...pomieszczenia(pomieszczeniaLink1)
1000
IDENTYFIKATOR
1000

1000

1070
     4
1070
     0
1070
     0
1070
     0
1070
  1024
  0
OBJECT_PTR
  5
287
102
{ACAD_REACTORS
330
27D
102
}
330
27D
1001
DCO15
1000
KONSTR...schematy(schematyLink1)
1000
IDENTYFIKATOR
1000

1000

1070
     4
1070
     0
1070
     0
1070
     0
1070
  1024
  0
OBJECT_PTR
  5
286
102
{ACAD_REACTORS
330
27D
102
}
330
27D
1001
DCO15
1000
jet_dbsamples...stolarka(stolarkaLink1)
1000
IDENTYFIKATOR
1000

1000

1070
     4
1070
     0
1070
     0
1070
     0
1070
  1024
  0
OBJECT_PTR
  5
285
102
{ACAD_REACTORS
330
27D
102
}
330
27D
1001
DCO15
1000
KONSTR...szczegoly(szczegolyLink1)
1000
IDENTYFIKATOR
1000

1000

1070
     4
1070
     0
1070
     0
1070
     0
1070
  1024
  0
OBJECT_PTR
  5
284
102
{ACAD_REACTORS
330
27D
102
}
330
27D
1001
DCO15
1000
ELE...tbl_jednostki(tbl_jednostkiLink1)
1000
IDENTYFIKATOR
1000

1000

1070
     4
1070
     0
1070
     0
1070
     0
1070
  1024
  0
OBJECT_PTR
  5
283
102
{ACAD_REACTORS
330
27D
102
}
330
27D
1001
DCO15
1000
ELE...tbl_opisy(tbl_opisyLink1)
1000
IDENTYFIKATOR
1000

1000

1070
     4
1070
     0
1070
     0
1070
     0
1070
  1024
  0
OBJECT_PTR
  5
282
102
{ACAD_REACTORS
330
27D
102
}
330
27D
1001
DCO15
1000
jet_dbsamples...tbl_PRZEGRODY(tbl_PRZEGRODYLink1)
1000
IDENTYFIKATOR
1000

1000

1070
     4
1070
     0
1070
     0
1070
     0
1070
  1024
  0
OBJECT_PTR
  5
281
102
{ACAD_REACTORS
330
27D
102
}
330
27D
1001
DCO15
1000
wkc...tbl_uwagi_co(tbl_uwagi_coLink1)
1000
IDENTYFIKATOR
1000

1000

1070
     4
1070
     0
1070
     0
1070
     0
1070
  1024
  0
OBJECT_PTR
  5
280
102
{ACAD_REACTORS
330
27D
102
}
330
27D
1001
DCO15
1000
wkc...tbl_uwagi_wodkan(tbl_uwagi_wodkanLink1)
1000
IDENTYFIKATOR
1000

1000

1070
     4
1070
     0
1070
     0
1070
     0
1070
  1024
  0
OBJECT_PTR
  5
27F
102
{ACAD_REACTORS
330
27D
102
}
330
27D
1001
DCO15
1000
KONSTR...uwagi_na_schematach(uwagi_na_schematachLink1)
1000
IDENTYFIKATOR
1000

1000

1070
     4
1070
     0
1070
     0
1070
     0
1070
  1024
  0
OBJECT_PTR
  5
27E
102
{ACAD_REACTORS
330
27D
102
}
330
27D
1001
DCO15
1000
KONSTR...zbroj_plyty(zbroj_plytyLink1)
1000
IDENTYFIKATOR
1000

1000

1070
     4
1070
     0
1070
     0
1070
     0
1070
  1024
  0
DICTIONARY
  5
237
330
236
100
AcDbDictionary
280
     1
281
     1
  3
ACAD_XREC_ROUNDTRIP
360
306
  3
ADSK_XREC_LAYOUTTHUMBNAIL
360
238
  0
DICTIONARY
  5
300
330
229
100
AcDbDictionary
280
     1
281
     1
  3
ACAD_XREC_ROUNDTRIP
360
301
  0
DICTIONARY
  5
309
330
259
100
AcDbDictionary
280
     1
281
     1
  3
ACAD_XREC_ROUNDTRIP
360
30A
  0
DICTIONARY
  5
307
330
258
100
AcDbDictionary
280
     1
281
     1
  3
ACAD_XREC_ROUNDTRIP
360
308
  0
DICTIONARY
  5
2FA
330
C
100
AcDbDictionary
280
     1
281
     1
  3
ACAD_XREC_ROUNDTRIP
360
2FB
  0
DICTIONARY
  5
262
330
261
100
AcDbDictionary
280
     1
281
     1
  3
ACAD_ROUNDTRIP_2008_TABLESTYLE_CELLSTYLEMAP
360
2F7
  3
ACAD_XREC_ROUNDTRIP
360
30B
  0
XRECORD
  5
306
102
{ACAD_REACTORS
330
237
102
}
330
237
100
AcDbXrecord
280
     1
102
SHADEPLOT
 70
     0
102
SHADEPLOTRESLEVEL
 70
     2
102
SHADEPLOTCUSTOMDPI
 70
   300
  0
XRECORD
  5
238
102
{ACAD_REACTORS
330
237
102
}
330
237
100
AcDbXrecord
280
     1
310
28000000B40000008A000000010008000000000008610000000000000000000000010000000000000000000000000000FFFFFF000000000000000000000000000000000000000000000000000000000000000000330000006600000099000000CC000000FF00000000330000333300006633000099330000CC330000FF3300
310
0000660000336600006666000099660000CC660000FF66000000990000339900006699000099990000CC990000FF99000000CC000033CC000066CC000099CC0000CCCC0000FFCC000000FF000033FF000066FF000099FF0000CCFF0000FFFF000000003300330033006600330099003300CC003300FF003300003333003333
310
33006633330099333300CC333300FF33330000663300336633006666330099663300CC663300FF66330000993300339933006699330099993300CC993300FF99330000CC330033CC330066CC330099CC3300CCCC3300FFCC330000FF330033FF330066FF330099FF3300CCFF3300FFFF330000006600330066006600660099
310
006600CC006600FF00660000336600333366006633660099336600CC336600FF33660000666600336666006666660099666600CC666600FF66660000996600339966006699660099996600CC996600FF99660000CC660033CC660066CC660099CC6600CCCC6600FFCC660000FF660033FF660066FF660099FF6600CCFF6600
310
FFFF660000009900330099006600990099009900CC009900FF00990000339900333399006633990099339900CC339900FF33990000669900336699006666990099669900CC669900FF66990000999900339999006699990099999900CC999900FF99990000CC990033CC990066CC990099CC9900CCCC9900FFCC990000FF99
310
0033FF990066FF990099FF9900CCFF9900FFFF99000000CC003300CC006600CC009900CC00CC00CC00FF00CC000033CC003333CC006633CC009933CC00CC33CC00FF33CC000066CC003366CC006666CC009966CC00CC66CC00FF66CC000099CC003399CC006699CC009999CC00CC99CC00FF99CC0000CCCC0033CCCC0066CC
310
CC0099CCCC00CCCCCC00FFCCCC0000FFCC0033FFCC0066FFCC0099FFCC00CCFFCC00FFFFCC000000FF003300FF006600FF009900FF00CC00FF00FF00FF000033FF003333FF006633FF009933FF00CC33FF00FF33FF000066FF003366FF006666FF009966FF00CC66FF00FF66FF000099FF003399FF006699FF009999FF00CC
310
99FF00FF99FF0000CCFF0033CCFF0066CCFF0099CCFF00CCCCFF00FFCCFF0000FFFF0033FFFF0066FFFF0099FFFF00CCFFFF00FFFFFF00000000000D0D0D001A1A1A00282828003535350043434300505050005D5D5D006B6B6B00787878008686860093939300A1A1A100AEAEAE00BBBBBB00C9C9C900D6D6D600E4E4E400
310
F1F1F100FFFFFF0000000000000000000000000000000000000000000000000000000000000000000000000000000000F5F5F5F5F5F5F5F5F5F5F5F5F5F5F5F5F5F5F5F5F5F5F5F5F5F5F5F5F5F5F5F5F5F5F5F5F5F5F5F5F5F5F5F5F5F5F5F5F5F5F5F5F5F5F5F5F5F5F5F5F5F5F5F5F5F5F5F5F5F5F5F5F5F5F5F5F5F5F5
310
F5F5F5F5F5F5F5F5F5F5F5F5F5F5F5F5F5F5F5F5F5F5F5F5F5F5F5F5F5F5F5F5F5F5F5F5F5F5F5F5F5F5F5F5F5F5F5F5F5F5F5F5F5F5F5F5F5F5F5F5F5F5F5F5F5F5F5F5F5F5F5F5F5F5F5F5F5F5F5F5F5F5F5F5F5F5F5F5F5F5F5F5F5F5F5F5F5F5F5F5EFF5E2E2E2E2E2E2E2E2E2E2E2E2E2E2E2E2E2E2E2E2E2E2E2E2E2
310
E2E2E2E2E2E2E2E2E2E2E2E2E2E2E2E2E2E2E2E2E2E2E2E2E2E2E2E2E2E2E2E2E2E2E2E2E2E2E2E2E2E2E2E2E2E2E2E2E2E2E2E2E2E2E2E2E2E2E2E2E2E2E2E2E2E2E2E2E2E2E2E2E2E2E2E2E2E2E2E2E2E2E2E2E2E2E2E2E2E2E2E2E2E2E2E2E2E2E2E2E2E2E2E2E2E2E2E2E2E2E2E2E2E2E2E2E2E2E2E2E2E2E2E2E2E2E2
310
E2E2E2E2E2E2E2E2E2E2E2E2E2E2E2E2E2E2E2E2E2E2E2E2F5F5EFF5E2E2E2E2E2E2E2E2E2E2E2E2E2E2E2E2E2E2E2E2E2E2E2E2E2E2E2E2E2E2E2E2E2E2E2E2E2E2E2E2E2E2E2E2E2E2E2E2E2E2E2E2E2E2E2E2E2E2E2E2E2E2E2E2E2E2E2E2E2E2E2E2E2E2E2E2E2E2E2E2E2E2E2E2E2E2E2E2E2E2E2E2E2E2E2E2E2E2E2
310
E2E2E2E2E2E2E2E2E2E2E2E2E2E2E2E2E2E2E2E2E2E2E2E2E2E2E2E2E2E2E2E2E2E2E2E2E2E2E2E2E2E2E2E2E2E2E2E2E2E2E2E2E2E2E2E2E2E2E2E2E2E2E2E2E2E2E2E2E2E2E2E2E2E2E2E2E2F5F5EFF5E2E2E2E2E2E2E2E2E2E2E2E2E2E2E2E2E2E2E2E2E2E2E2E2E2E2E2E2E2E2E2E2E2E2E2E2E2E2E2E2E2E2E2E2E2E2
310
E2E2E2E2E2E2E2E2E2E2E2E2E2E2E2E2E2E2E2E2E2E2E2E2E2E2E2E2E2E2E2E2E2E2E2E2E2E2E2E2E2E2E2E2E2E2E2E2E2E2E2E2E2E2E2E2E2E2E2E2E2E2E2E2E2E2E2E2E2E2E2E2E2E2E2E2E2E2E2E2E2E2E2E2E2E2E2E2E2E2E2E2E2E2E2E2E2E2E2E2E2E2E2E2E2E2E2E2E2E2E2E2E2E2E2E2E2E2E2E2E2E2E2E2E2E2E2
310
E2E2E2F5F5EFF5E2E2E2F5F5F5F5F5F5F5F5E2E2E2E2E2E2E2E2E2F5F5F5F5F5F5F5F5F5F5F5F5F5F5F5E2E2E2E2E2E2E2E2E2F5F5F5F5F5F5F5F5F5F5F5F5F5F5F5F5E2E2E2E2E2E2E2E2F5F5F5F5F5F5F5F5F5F5F5F5F5F5F5F5E2E2E2E2E2E2E2E2F5F5F5F5F5F5F5F5F5F5F5F5F5F5F5F5E2E2E2E2E2E2E2E2F5F5F5F5
310
F5F5F5F5F5F5F5F5F5F5F5F5E2E2E2E2E2E2E2E2E2F5F5F5F5F5F5F5F5F5F5F5F5F5F5F5E2E2E2E2E2E2E2E2E2F5F5F5F5F5F5F5F5E2E2E2F5F5EFF5E2E2E2F5E2E2E2E2E2E2E2E2E2E2E2E2E2E2E2E2E2E2E2E2E2E2E2E2E2E2E2E2E2E2E2E2E2E2E2E2E2E2E2E2E2E2E2E2E2E2E2E2E2E2E2E2E2E2E2E2E2E2E2E2E2E2E2
310
E2E2E2E2E2E2E2E2E2E2E2E2E2E2E2E2E2E2E2E2E2E2E2E2E2E2E2E2E2E2E2E2E2E2E2E2E2E2E2E2E2E2E2E2E2E2E2E2E2E2E2E2E2E2E2E2E2E2E2E2E2E2E2E2E2E2E2E2E2E2E2E2E2E2E2E2E2E2E2E2E2E2E2E2E2E2E2E2E2E2E2E2E2E2E2E2E2E2E2E2E2E2E2E2E2F5E2E2E2F5F5EFF5E2E2E2F5E2E2E2E2E2E2E2E2E2E2
310
E2E2E2E2E2E2E2E2E2E2E2E2E2E2E2E2E2E2E2E2E2E2E2E2E2E2E2E2E2E2E2E2E2E2E2E2E2E2E2E2E2E2E2E2E2E2E2E2E2E2E2E2E2E2E2E2E2E2E2E2E2E2E2E2E2E2E2E2E2E2E2E2E2E2E2E2E2E2E2E2E2E2E2E2E2E2E2E2E2E2E2E2E2E2E2E2E2E2E2E2E2E2E2E2E2E2E2E2E2E2E2E2E2E2E2E2E2E2E2E2E2E2E2E2E2E2E2
310
E2E2E2E2E2E2E2E2E2E2E2E2E2E2E2E2E2E2E2E2E2E2E2E2E2E2E2E2E2E2E2F5E2E2E2F5F5EFF5E2E2E2F5E2E2E2E2E2E2E2E2E2E2E2E2E2E2E2E2E2E2E2E2E2E2E2E2E2E2E2E2E2E2E2E2E2E2E2E2E2E2E2E2E2E2E2E2E2E2E2E2E2E2E2E2E2E2E2E2E2E2E2E2E2E2E2E2E2E2E2E2E2E2E2E2E2E2E2E2E2E2E2E2E2E2E2E2
310
E2E2E2E2E2E2E2E2E2E2E2E2E2E2E2E2E2E2E2E2E2E2E2E2E2E2E2E2E2E2E2E2E2E2E2E2E2E2E2E2E2E2E2E2E2E2E2E2E2E2E2E2E2E2E2E2E2E2E2E2E2E2E2E2E2E2E2E2E2E2E2E2E2E2E2E2E2E2E2E2E2E2E2E2F5E2E2E2F5F5EFF5E2E2E2F5E2E2E2E2E2E2E2E2E2E2E2E2E2E2E2E2E2E2E2E2E2E2E2E2E2E2E2E2E2E2E2
310
E2E2E2E2E2E2E2E2E2E2E2E2E2E2E2E2E2E2E2E2E2E2E2E2E2E2E2E2E2E2E2E2E2E2E2E2E2E2E2E2E2E2E2E2E2E2E2E2E2E2E2E2E2E2E2E2E2E2E2E2E2E2E2E2E2E2E2E2E2E2E2E2E2E2E2E2E2E2E2E2E2E2E2E2E2E2E2E2E2E2E2E2E2E2E2E2E2E2E2E2E2E2E2E2E2E2E2E2E2E2E2E2E2E2E2E2E2E2E2E2E2E2E2E2E2E2E2
310
E2E2E2E2E2E2E2E2E2E2F5E2E2E2F5F5EFF5E2E2E2F5E2E2E2E2E2E2E2E2E2E2E2E2E2E2E2E2E2E2E2E2E2E2E2E2E2E2E2E2E2E2E2E2E2E2E2E2E2E2E2E2E2E2E2E2E2E2E2E2E2E2E2E2E2E2E2E2E2E2E2E2E2E2E2E2E2E2E2E2E2E2E2E2E2E2E2E2E2E2E2E2E2E2E2E2E2E2E2E2E2E2E2E2E2E2E2E2E2E2E2E2E2E2E2E2E2
310
E2E2E2E2E2E2E2E2E2E2E2E2E2E2E2E2E2E2E2E2E2E2E2E2E2E2E2E2E2E2E2E2E2E2E2E2E2E2E2E2E2E2E2E2E2E2E2E2E2E2E2E2E2E2E2E2E2E2E2E2E2E2E2F5E2E2E2F5F5EFF5E2E2E2F5E2E2E2E2E2E2E2E2E2E2E2E2E2E2E2E2E2E2E2E2E2E2E2E2E2E2E2E2E2E2E2E2E2E2E2E2E2E2E2E2E2E2E2E2E2E2E2E2E2E2E2E2
310
E2E2E2E2E2E2E2E2E2E2E2E2E2E2E2E2E2E2E2E2E2E2E2E2E2E2E2E2E2E2E2E2E2E2E2E2E2E2E2E2E2E2E2E2E2E2E2E2E2E2E2E2E2E2E2E2E2E2E2E2E2E2E2E2E2E2E2E2E2E2E2E2E2E2E2E2E2E2E2E2E2E2E2E2E2E2E2E2E2E2E2E2E2E2E2E2E2E2E2E2E2E2E2E2E2E2E2E2E2E2E2E2E2E2E2E2F5E2E2E2F5F5EFF5E2E2E2
310
F5E2E2E2E2E2E2E2E2E2E2E2E2E2E2E2E2E2E2E2E2E2E2E2E2E2E2E2E2E2E2E2E2E2E2E2E2E2E2E2E2E2E2E2E2E2E2E2E2E2E2E2E2E2E2E2E2E2E2E2E2E2E2E2E2E2E2E2E2E2E2E2E2E2E2E2E2E2E2E2E2E2E2E2E2E2E2E2E2E2E2E2E2E2E2E2E2E2E2E2E2E2E2E2E2E2E2E2E2E2E2E2E2E2E2E2E2E2E2E2E2E2E2E2E2E2E2
310
E2E2E2E2E2E2E2E2E2E2E2E2E2E2E2E2E2E2E2E2E2E2E2E2E2E2E2E2E2E2E2E2E2E2E2E2E2E2E2E2E2E2F5E2E2E2F5F5EFF5E2E2E2F5E2E2E2E2E2E2E2E2E2E2E2E2E2E2E2E2E2E2E2E2E2E2E2E2E2E2E2E2E2E2E2E2E2E2E2E2E2E2E2E2E2E2E2E2E2E2E2E2E2E2E2E2E2E2E2E2E2E2E2E2E2E2E2E2E2E2E2E2E2E2E2E2E2
310
E2E2E2E2E2E2E2E2E2E2E2E2E2E2E2E2E2E2E2E2E2E2E2E2E2E2E2E2E2E2E2E2E2E2E2E2E2E2E2E2E2E2E2E2E2E2E2E2E2E2E2E2E2E2E2E2E2E2E2E2E2E2E2E2E2E2E2E2E2E2E2E2E2E2E2E2E2E2E2E2E2E2E2E2E2E2E2E2E2E2E2E2E2E2E2F5E2E2E2F5F5EFF5E2E2E2E2E2E2E2E2E2E2E2E2E2E2E2E2E2E2E2E2E2E2E2E2
310
E2E2E2E2E2E2E2E2E2E2E2E2E2E2E2E2E2E2E2E2E2E2E2E2E2E2E2E2E2E2E2E2E2E2E2E2E2E2E2E2E2E2E2E2E2E2E2E2E2E2E2E2E2E2E2E2E2E2E2E2E2E2E2E2E2E2E2E2E2E2E2E2E2E2E2E2E2E2E2E2E2E2E2E2E2E2E2E2E2E2E2E2E2E2E2E2E2E2E2E2E2E2E2E2E2E2E2E2E2E2E2E2E2E2E2E2E2E2E2E2E2E2E2E2E2E2E2
310
E2E2E2E2E2E2E2E2E2E2E2E2E2E2E2E2E2E2E2E2E2E2E2E2E2F5F5EFF5E2E2E2E2E2E2E2E2E2E2E2E2E2E2E2E2E2E2E2E2E2E2E2E2E2E2E2E2E2E2E2E2E2E2E2E2E2E2E2E2E2E2E2E2E2E2E2E2E2E2E2E2E2E2E2E2E2E2E2E2E2E2E2E2E2E2E2E2E2E2E2E2E2E2E2E2E2E2E2E2E2E2E2E2E2E2E2E2E2E2E2E2E2E2E2E2E2E2
310
E2E2E2E2E2E2E2E2E2E2E2E2E2E2E2E2E2E2E2E2E2E2E2E2E2E2E2E2E2E2E2E2E2E2E2E2E2E2E2E2E2E2E2E2E2E2E2E2E2E2E2E2E2E2E2E2E2E2E2E2E2E2E2E2E2E2E2E2E2E2E2E2E2E2E2E2E2E2F5F5EFF5E2E2E2E2E2E2E2E2E2E2E2E2E2E2E2E2E2E2E2E2E2E2E2E2E2E2E2E2E2E2E2E2E2E2E2E2E2E2E2E2E2E2E2E2E2
310
E2E2E2E2E2E2E2E2E2E2E2E2E2E2E2E2E2E2E2E2E2E2E2E2E2E2E2E2E2E2E2E2E2E2E2E2E2E2E2E2E2E2E2E2E2E2E2E2E2E2E2E2E2E2E2E2E2E2E2E2E2E2E2E2E2E2E2E2E2E2E2E2E2E2E2E2E2E2E2E2E2E2E2E2E2E2E2E2E2E2E2E2E2E2E2E2E2E2E2E2E2E2E2E2E2E2E2E2E2E2E2E2E2E2E2E2E2E2E2E2E2E2E2E2E2E2E2
310
E2E2E2E2F5F5EFF5E2E2E2E2E2E2E2E2E2E2E2E2E2E2E2E2E2E2E2E2E2E2E2E2E2E2E2E2E2E2E2E2E2E2E2E2E2E2E2E2E2E2E2E2E2E2E2E2E2E2E2E2E2E2E2E2E2E2E2E2E2E2E2E2E2E2E2E2E2E2E2E2E2E2E2E2E2E2E2E2E2E2E2E2E2E2E2E2E2E2E2E2E2E2E2E2E2E2E2E2E2E2E2E2E2E2E2E2E2E2E2E2E2E2E2E2E2E2E2
310
E2E2E2E2E2E2E2E2E2E2E2E2E2E2E2E2E2E2E2E2E2E2E2E2E2E2E2E2E2E2E2E2E2E2E2E2E2E2E2E2E2E2E2E2E2E2E2E2E2E2E2E2E2E2E2E2E2F5F5EFF5E2E2E2E2E2E2E2E2E2E2E2E2E2E2E2E2E2E2E2E2F5F5F5F5F5F5F5F5F5F5F5F5F5F5F5F5F5F5F5F5F5F5F5F5F5F5F5F5F5F5F5F5F5F5F5F5F5F5F5F5F5F5F5F5F5F5
310
F5F5F5F5F5F5F5F5F5F5F5F5F5F5F5F5F5F5F5F5F5F5F5F5F5F5F5F5F5F5F5F5F5F5F5F5F5F5F5F5F5F5F5F5F5F5F5F5F5F5F5F5F5F5F5F5F5F5F5F5F5F5F5F5F5F5F5F5F5F5F5F5F5F5F5F5F5F5F5F5F5F5F5F5F5F5F5F5F5F5E2E2E2E2E2E2E2E2E2E2E2E2E2E2E2E2E2E2E2E2F5F5EFF5E2E2E2E2E2E2E2E2E2E2E2E2E2
310
E2E2E2E2E2E2E2F5E2E2E2E2E2E2E2E2E2E2E2E2E2E2E2E2E2E2E2E2E2E2E2E2E2E2E2E2E2DCE2E2E2E2E2E2E2E2E2E2E2E2E2E2E2E2E2E2E2E2E2E2E2E2E2E2E2E2E2E2E2E2E2E2E2E2E2E2E2E2E2E2E2E2E2E2E2E2E2E2E2E2E2E2E2E2E2E2E2E2E2E2E2E2E2E2E2E2E2E2E2E2E2E2DCE2E2E2E2E2E2E2E2E2E2E2E2E2E2
310
E2E2E2E2E2E2E2E2E2E2E2E2E2E2E2F5E2E2E2E2E2E2E2E2E2E2E2E2E2E2E2E2E2E2E2E2F5F5EFF5E2E2E2E2E2E2E2E2E2E2E2E2E2E2E2E2E2E2E2E2F5E2E2E2E2E2E2E2E2E2E2E2E2E2E2E2E2E2E2E2E2E2E2E2E2E2E2E2E2E2DCE2E2E2E2E2E2E2E2E2E2E2E2E2E2E2E2E2E2E2E2E2E2E2E2E2E2E2E2E2E2E2E2E2E2E2E2
310
E2E2E2E2E2E2E2E2E2E2E2E2E2E2E2E2E2E2E2E2E2E2E2E2E2E2E2E2E2E2E2E2E2E2E2E2E2E2DCE2E2E2E2E2E2E2E2E2E2E2E2E2E2E2E2E2E2E2E2E2E2E2E2E2E2E2E2E2F5E2E2E2E2E2E2E2E2E2E2E2E2E2E2E2E2E2E2E2E2F5F5EFF5E2E2E2E2E2E2E2E2E2E2E2E2E2E2E2E2E2E2E2E2F5E2E2E2E2E2E2E2E2E2E2E2E2E2
310
E2E2E2E2E2E2E2E2E2E2E2E2E2E2E2E2DCE2E2E2E2E2E2E2E2E2E2E2E2E2E2E2E2E2E2E2E2E2E2E2E2E2E2E2E2E2E2E2E2E2E2E2E2E2E2E2E2E2E2E2E2E2E2E2E2E2E2E2E2E2E2E2E2E2E2E2E2E2E2E2E2E2E2E2E2E2E2E2E2E2E2DCE2E2E2E2E2E2E2E2E2E2E2E2E2E2E2E2E2E2E2E2E2E2E2E2E2E2E2E2E2F5E2E2E2E2E2
310
E2E2E2E2E2E2E2E2E2E2E2E2E2E2E2F5F5EFF5E2E2E2E2E2E2E2E2E2E2E2E2E2E2E2E2E2E2E2E2F5E2E2E2E2E2E2E2E2E2E2E2E2E2E2E2E2E2E2E2E2E2E2E2E2E2E2E2E2E2DCE2E2E2E2E2E2E2E2E2E2E2E2E2E2E2E2E2E2E2E2E2E2E2E2E2E2E2E2E2E2E2E2E2E2E2E2E2E2E2E2E2E2E2E2E2E2E2E2E2E2E2E2E2E2E2E2E2
310
E2E2E2E2E2E2E2E2E2E2E2E2E2E2E2E2E2DCE2E2E2E2E2E2E2E2E2E2E2E2E2E2E2E2E2E2E2E2E2E2E2E2E2E2E2E2E2F5E2E2E2E2E2E2E2E2E2E2E2E2E2E2E2E2E2E2E2E2F5F5EFF5E2E2E2F5E2E2E2E2E2E2E2E2E2E2E2E2E2E2E2E2F5E2E2E2E2E2E2E2E2E2E2E2E2E2E2E2E2E2E2E2E2E2E2E2E2E2E2E2E2E2DCE2E2E2E2
310
E2E2E2E2E2E2E2272727E2E22727E2E2E2E2E2E2E2E2E2E2E2E2E2E2E2E2E2E2E2E2E2E2E2E2E2E2E2E2E2E2E2E2E2E2E2E2E2E2E2E2E2E2E2E2E2E2E2E2E2E2E2E2E2E2E2E2DCE2E2E2E2E2E2E2E2E2E2E2E2E2E2E2E2E2E2E2E2E2E2E2E2E2E2E2E2E2F5E2E2E2E2E2E2E2E2E2E2E2E2E2E2E2E2F5E2E2E2F5F5EFF5E2E2
310
E2F5E2E2E2E2E2E2E2E2E2E2E2E2E2E2E2E2F5E2E2E2E2E2E2E2E2E2E2E2E2E2E2E2E2E2E2E2E2E2E2E2E2E2E2E2E2E2DCE2E2E2E2E2E2E2E2E2E2E2272727272727272727E2E2E2E2E2E2E2E2E2E2E2E2E2E2E2E2E2E2E2E2E2E2E2E2E2E2E2E2E2E2E2E2E2E2E2E2E2E2E2E2E2E2E2E2E2E2E2E2E2E2E2E2E2E2DCE2E2E2
310
E2E2E2E2E2E2E2E2E2E2E2E2E2E2E2E2E2E2E2E2E2E2E2E2E2E2F5E2E2E2E2E2E2E2E2E2E2E2E2E2E2E2E2F5E2E2E2F5F5EFF5E2E2E2F5E2E2E2E2E2E2E2E2E2E2E2E2E2E2E2E2F5E2E2E2E2E2E2E2E2E2E2E2E2E2E2E2E2E2E2E2E2E2E2E2E2E2E2E2E2E2DCE2E2E2E2E2E2E2E2E2E2E2272727272727272727E2E2E2E2E2
310
E2E2E2E2E2E2E2E2E2E2E2E2E2E2E2E2E2E2E2E2E2E2E2E2E2E2E2E2E2E2E2E2E2E2E2E2E2E2E2E2E2E2E2E2E2E2E2E2E2DCE2E2E2E2E2E2E2E2E2E2E2E2E2E2E2E2E2E2E2E2E2E2E2E2E2E2E2E2E2F5E2E2E2E2E2E2E2E2E2E2E2E2E2E2E2E2F5E2E2E2F5F5EFF5E2E2E2F5E2E2E2E2E2E2E2E2E2E2E2E2E2E2E2E2F5E2E2
310
E2E2E2E2E2E2E2E2E2E2E2E2E2E2E2E2E2E2E2E2E2E2E2E2E2E2E2DCE2E2E2E2E2E2E2E2E2E2E2E2E2E2E2E2E2E2E2E2E2E2E2E2E2E2E2E2E2E2E2E2E2E2E2E2E2E2E2E2E2E2E2E2E2E2E2E2E2E2E2E2E2E2E2E2E2E2E2E2E2E2E2E2E2E2E2E2E2E2E2E2E2E2DCE2E2E2E2E2E2E2E2E2E2E2E2E2E2E2E2E2E2E2E2E2E2E2E2
310
E2E2E2E2E2F5E2E2E2E2E2E2E2E2E2E2E2E2E2E2E2E2F5E2E2E2F5F5EFF5E2E2E2F5E2E2E2E2E2E2E2E2E2E2E2E2E2E2E2E2F5E2E2E2E2E2E2E2E2E2E2E2E2E2E2E2E2E2E2E2E2E2E2E2E2E2E2E2E2E2DCE2E2E2E2E2E2E2E2E2E2E2E2E2E2E2E2E2E2E2E2E2E2E2E2E2E2E2E2E2E2E2E2E2E2E2E2E2E2E2E2E2E2E2E2E2E2
310
E2E2E2E2E2E2E2E2E2E2E2E2E2E2E2E2E2E2E2E2E2E2E2E2E2E2E2E2DCE2E2E2E2E2E2E2E2E2E2E2E2E2E2E2E2E2E2E2E2E2E2E2E2E2E2E2E2E2F5E2E2E2E2E2E2E2E2E2E2E2E2E2E2E2E2F5E2E2E2F5F5EFF5E2E2E2F5E2E2E2E2E2E2E2E2E2E2E2E2E2E2E2E2F5E2E2E2E2E2E2E2E2E2E2E2E2E2E2E2E2E2E2E2E2E2E2E2
310
E2E2E2E2E2E2DCE2E2E2E2E2E2E2E2E2E2E2E2E2E2E2E2E2E2E2E2E2E2E2E2E2E2E2E2E2E2E2E2E2E2E2E2E2E2E2E2E2E2E2E2E2E2E2E2E2E2E2E2E2E2E2E2E2E2E2E2E2E2E2E2E2E2E2E2E2E2E2E2E2E2DCE2E2E2E2E2E2E2E2E2E2E2E2E2E2E2E2E2E2E2E2E2E2E2E2E2E2E2E2E2F5E2E2E2E2E2E2E2E2E2E2E2E2E2E2E2
310
E2F5E2E2E2F5F5EFF5E2E2E2F5E2E2E2E2E2E2E2E2E2E2E2E2E2E2E2E2F5E2E2E2E2E2E2E2E2E2E2E2E2E2E2E2E2E2E2E2E2E2E2E2E2E2E2E2E2E2DCE2E2E2E2E2E2E2E2E2E2E2E2E2E2E2E2E2E2E2E2E2E2E2E2E2E2E2E2E2E2E2E2E2E2E2E2E2E2E2E2E2E2E2E2E2E2E2E2E2E2E2E2E2E2E2E2E2E2E2E2E2E2E2E2E2E2E2
310
E2E2E2E2E2E2E2DCE2E2E2E2E2E2E2E2E2E2E2E2E2E2E2E2E2E2E2E2E2E2E2E2E2E2E2E2E2F5E2E2E2E2E2E2E2E2E2E2E2E2E2E2E2E2F5E2E2E2F5F5EFF5E2E2E2F5E2E2E2E2E2E2E2E2E2E2E2E2E2E2E2E2F5E2E2E2E2E2E2E2E2E2E2E2E2E2E2E2E2E2E2E2E2E2E2E2E2E2E2E2E2E2DCE2E2E2E2E2E2E2E2E2E2E2E2E2E2
310
E2E2E2E2E2E2E2E2E2E2E2E2E2E2E2E2E2E2E2E2E2E2E2E2E2E2E2E2E2E2E2E2E2E2E2E2E2E2E2E2E2E2E2E2E2E2E2E2E2E2E2E2E2E2E2E2E2E2E2E2DCE2E2E2E2E2E2E2E2E2E2E2E2E2E2E2E2E2E2E2E2E2E2E2E2E2E2E2E2E2F5E2E2E2E2E2E2E2E2E2E2E2E2E2E2E2E2F5E2E2E2F5F5EFF5E2E2E2F5E2E2E2E2E2E2E2E2
310
E2E2E2E2E2E2E2E2F5E2E2E2E2E2E2E2E2E2E2E2E2E2E2E2E2E2E2E2E2E2E2E2E2E2E2E2E2E2DCE2E2E2E2E2E2E2E2E2E2E2E2E2E2E2E2E2E2E2E2E2E2E2E2E2E2E2E2E2E2E2E2E2E2E2E2E2E2E2E2E2E2E2E2E2E2E2E2E2E2E2E2E2E2E2E2E2E2E2E2E2E2E2E2E2E2E2E2E2E2E2E2E2E2DCE2E2E2E2E2E2E2E2E2E2E2E2E2
310
E2E2E2E2E2E2E2E2E2E2E2E2E2E2E2E2F5E2E2E2E2E2E2E2E2E2E2E2E2E2E2E2E2F5E2E2E2F5F5EFF5E2E2E2F5E2E2E2E2E2E2E2E2E2E2E2E2E2E2E2E2F5E2E2E2E2E2E2E2E2E2E2E2E2E2E2E2E2E2E2E2E2E2E2E2E2E2E2E2E2E2DCE2E2E2E2E2E2E2E2E2E2E2E2E2E2E2E2E2E2E2E2E2E2E2E2E2E2E2E2E2E2E2E2E2E2E2
310
E2E2E2E2E2E2E2E2E2E2E2E2E2E2E2E2E2E2E2E2E2E2E2E2E2E2E2E2E2E2E2E2E2E2E2E2E2E2E2DCE2E2E2E2E2E2E2E2E2E2E2E2E2E2E2E2E2E2E2E2E2E2E2E2E2E2E2E2E2F5E2E2E2E2E2E2E2E2E2E2E2E2E2E2E2E2F5E2E2E2F5F5EFF5E2E2E2F5E2E2E2E2E2E2E2E2E2E2E2E2E2E2E2E2F5E2E2E2E2E2E2E2E2E2E2E2E2
310
E2E2E2E2E2E2E2E2E2E2E2E2E2E2E2E2E2DCE2E2E2E2E2E2E2E2E2E2E2E2E2E2E2E2E2E2E2E2E2E2E2E2E2E2E2E2E2E2E2E2E2E2E2E2E2E2E2E2E2E2E2E2E2E2E2E2E2E2E2E2E2E2E2E2E2E2E2E2E2E2E2E2E2E2E2E2E2E2E2E2E2E2DCE2E2E2E2E2E2E2E2E2E2E2E2E2E2E2E2E2E2E2E2E2E2E2E2E2E2E2E2E2F5E2E2E2E2
310
E2E2E2E2E2E2E2E2E2E2E2E2F5E2E2E2F5F5EFF5E2E2E2F5E2E2E2E2E2E2E2E2E2E2E2E2E2E2E2E2F5E2E2E2E2E2E2E2E2E2E2E2E2E2E2E2E2E2E2E2E2E2E2E2E2E2E2E2E2E2DCE2E2E2E2E2E2E2E2E2E2E2E2E2E2E2E2E2E2E2E2E2E2E2E2E2E2E2E2E2E2E2E2E2E2E2E2E2E2E2E2E2E2E2E2E2E2E2E2E2E2E2E2E2E2E2E2
310
E2E2E2E2E2E2E2E2E2E2E2E2E2E2E2E2E2E2DCE2E2E2E2E2E2E2E2E2E2E2E2E2E2E2E2E2E2E2E2E2E2E2E2E2E2E2E2E2F5E2E2E2E2E2E2E2E2E2E2E2E2E2E2E2E2F5E2E2E2F5F5EFF5E2E2E2F5E2E2E2E2E2E2E2E2E2E2E2E2E2E2E2E2F5E2E2E2E2E2E2E2E2E2E2E2E2E2E2E2E2E2E2E2E2E2E2E2E2E2E2E2E2E2DCE2E2E2
310
E2E2E2E2E2E2E2E2E2E2E2E2E2E2E2E2E2E2E2E2E2E2E2E2E2E2E2E2E2E2E2E2E2E2E2E2E2E2E2E2E2E2E2E2E2E2E2E2E2E2E2E2E2E2E2E2E2E2E2E2E2E2E2E2E2E2E2E2E2E2E2DCE2E2E2E2E2E2E2E2E2E2E2E2E2E2E2E2E2E2E2E2E2E2E2E2E2E2E2E2E2F5E2E2E2E2E2E2E2E2E2E2E2E2E2E2E2E2F5E2E2E2F5F5EFF5E2
310
E2E2F5E2E2E2E2E2E2E2E2E2E2E2E2E2E2E2E2F5E2E2E2E2E2E2E2E2E2E2E2E2E2E2E2E2E2E2E2E2E2E2E2E2E2E2E2E2E2DCE2E2E2E2E2E2E2E2E2E2E2E2E2E2E2E2E2E2E2E2E2E2E2E2E2E2E2E2E2E2E2E2E2E2E2E2E2E2E2E2E2E2E2E2E2E2E2E2E2E2E2E2E2E2E2E2E2E2E2E2E2E2E2E2E2E2E2E2E2E2E2E2E2E2DCE2E2
310
E2E2E2E2E2E2E2E2E2E2E2E2E2E2E2E2E2E2E2E2E2E2E2E2E2E2E2F5E2E2E2E2E2E2E2E2E2E2E2E2E2E2E2E2F5E2E2E2F5F5EFF5E2E2E2F5E2E2E2E2E2E2E2E2E2E2E2E2E2E2E2E2F5E2E2E2E2E2E2E2E2E2E2E2E2E2E2E2E2E2E2E2E2E2E2E2E2E2E2E2E2E2DCE2E2E2E2E2E2E2E2E2E2E2E2E2E2E2E2E2E2E2E2E2E2E2E2
310
E2E2E2E2E2E2E2E2E2E2E2E2E2E2E2E2E2E2E2E2E2E2E2E2E2E2E2E2E2E2E2E2E2E2E2E2E2E2E2E2E2E2E2E2E2E2E2E2E2E2DCE2E2E2E2E2E2E2E2E2E2E2E2E2E2E2E2E2E2E2E2E2E2E2E2E2E2E2E2E2F5E2E2E2E2E2E2E2E2E2E2E2E2E2E2E2E2F5E2E2E2F5F5EFF5E2E2E2F5E2E2E2E2E2E2E2E2E2E2E2E2E2E2E2E2F5E2
310
E2E2E2E2E2E2E2E2E2E2E2E2E2E2E2E2E2E2E2E2E2E2E2E2E2E2E2E2DCE2E2E2E2E2E2E2E2E2E2E2E2E2E2E2E2E2E2E2E2E2E2E2E2E2E2E2E2E2E2E2E2E2E2E2E2E2E2E2E2E2E2E2E2E2E2E2E2E2E2E2E2E2E2E2E2E2E2E2E2E2E2E2E2E2E2E2E2E2E2E2E2E2E2DCE2E2E2E2E2E2E2E2E2E2E2E2E2E2E2E2E2E2E2E2E2E2E2
310
E2E2E2E2E2E2F5E2E2E2E2E2E2E2E2E2E2E2E2E2E2E2E2F5E2E2E2F5F5EFF5E2E2E2F5E2E2E2E2E2E2E2E2E2E2E2E2E2E2E2E2F5E2E2E2E2E2E2E2E2E2E2E2E2E2E2E2E2E2E2E2E2E2E2E2E2E2E2E2E2E2DCE2E2E2E2E2E2E2E2E2E2E2E2E2E2E2E2E2E2E2E2E2E2E2E2E2E2E2E2E2E2E2E2E2E2E2E2E2E2E2E2E2E2E2E2E2
310
E2E2E2E2E2E2E2E2E2E2E2E2E2E2E2E2E2E2E2E2E2E2E2E2E2E2E2E2E2DCE2E2E2E2E2E2E2E2E2E2E2E2E2E2E2E2E2E2E2E2E2E2E2E2E2E2E2E2E2F5E2E2E2E2E2E2E2E2E2E2E2E2E2E2E2E2F5E2E2E2F5F5EFF5E2E2E2E2E2E2E2E2E2E2E2E2E2E2E2E2E2E2E2E2F5E2E2E2E2E2E2E2E2E2E2E2E2E2E2E2E2E2E2E2E2E2E2
310
E2E2E2E2E2E2E2DCE2E2E2E2E2E2E2E2E2E2E2E2E2E2E2E2E2E2E2E2E2E2E2E2E2E2E2E2E2E2E2E2E2E2E2E2E2E2E2E2E2E2E2E2E2E2E2E2E2E2E2E2E2E2E2E2E2E2E2E2E2E2E2E2E2E2E2E2E2E2E2E2E2E2DCE2E2E2E2E2E2E2E2E2E2E2E2E2E2E2E2E2E2E2E2E2E2E2E2E2E2E2E2E2F5E2E2E2E2E2E2E2E2E2E2E2E2E2E2
310
E2E2E2E2E2E2F5F5EFF5E2E2E2E2E2E2E2E2E2E2E2E2E2E2E2E2E2E2E2E2F5E2E2E2E2E2E2E2E2E2E2E2E2E2E2E2E2E2E2E2E2E2E2E2E2E2E2E2E2E2DCE2E2E2E2E2E2E2E2E2E2E2E2E2E2E2E2E2E2E2E2E2E2E2E2E2E2E2E2E2E2E2E2E2E2E2E2E2E2E2E2E2E2E2E2E2E2E2E2E2E2E2E2E2E2E2E2E2E2E2E2E2E2E2E2E2E2
310
E2E2E2E2E2E2E2E2DCE2E2E2E2E2E2E2E2E2E2E2E2E2E2E2E2E2E2E2E2E2E2E2E2E2E2E2E2E2F5E2E2E2E2E2E2E2E2E2E2E2E2E2E2E2E2E2E2E2E2F5F5EFF5E2E2E2E2E2E2E2E2E2E2E2E2E2E2E2E2E2E2E2E2F5E2E2E2E2E2E2E2E2E2E2E2E2E2E2E2E2E2E2E2E2E2E2E2E2E2E2E2E2E2DCE2E2E2E2E2E2E2E2E2E2E2E2E2
310
E2E2E2E2E2E2E2E2E2E2E2E2E2E2E2E2E2E2E2E2E2E2E2E2E2E2E2E2E2E2E2E2E2E2E2E2E2E2E2E2E2E2E2E2E2E2E2E2E2E2E2E2E2E2E2E2E2E2E2E2E2DCE2E2E2E2E2E2E2E2E2E2E2E2E2E2E2E2E2E2E2E2E2E2E2E2E2E2E2E2E2F5E2E2E2E2E2E2E2E2E2E2E2E2E2E2E2E2E2E2E2E2F5F5EFF5E2E2E2E2E2E2E2E2E2E2E2
310
E2E2E2E2E2E2E2E2E2F5E2E2E2E2E2E2E2E2E2E2E2E2E2E2E2E2E2E2E2E2E2E2E2E2E2E2E2E2E2DCE2E2E2E2E2E2E2E2E2E2E2E2E2E2E2E2E2E2E2E2E2E2E2E2E2E2E2E2E2E2E2E2E2E2E2E2E2E2E2E2E2E2E2E2E2E2E2E2E2E2E2E2E2E2E2E2E2E2E2E2E2E2E2E2E2E2E2E2E2E2E2E2E2E2DCE2E2E2E2E2E2E2E2E2E2E2E2
310
E2E2E2E2E2E2E2E2E2E2E2E2E2E2E2E2E2F5E2E2E2E2E2E2E2E2E2E2E2E2E2E2E2E2E2E2E2E2F5F5EFF5E2E2E2E2E2E2E2E2E2E2E2E2E2E2E2E2E2E2E2E2F5E2E2E2E2E2E2E2E2E2E2E2E2E2E2E2E2E2E2E2E2E2E2E2E2E2E2E2E2E2DCE2E2E2E2E2E2E2E2E2E2E2E2E2E2E2E2E2E2E2E2E2E2E2E2E2E2E2E2E2E2E2E2E2E2
310
E2E2E2E2E2E2E2E2E2E2E2E2E2E2E2E2E2E2E2E2E2E2E2E2E2E2E2E2E2E2E2E2E2E2E2E2E2E2E2E2DCE2E2E2E2E2E2E2E2E2E2E2E2E2E2E2E2E2E2E2E2E2E2E2E2E2E2E2E2E2F5E2E2E2E2E2E2E2E2E2E2E2E2E2E2E2E2E2E2E2E2F5F5EFF5E2E2E2E2E2E2E2E2E2E2E2E2E2E2E2E2E2E2E2E2F5E2E2E2E2E2E2E2E2E2E2E2
310
E2E2E2E2E2E2E2E2E2E2E2E2E2E2E2E2E2E2DCE2E2E2E2E2E2E2E2E2E2E2E2E2E2E2E2E2E2E2E2E2E2E2E2E2E2E2E2E2E2E2E2E2E2E2E2E2E2E2E2E2E2E2E2E2E2E2E2E2E2E2E2E2E2E2E2E2E2E2E2E2E2E2E2E2E2E2E2E2E2E2E2E2E2DCE2E2E2E2E2E2E2E2E2E2E2E2E2E2E2E2E2E2E2E2E2E2E2E2E2E2E2E2E2F5E2E2E2
310
E2E2E2E2E2E2E2E2E2E2E2E2E2E2E2E2E2F5F5EFF5E2E2E2E2E2E2E2E2E2E2E2E2E2E2E2E2E2E2E2E2F5E2E2E2E2E2E2E2E2E2E2E2E2E2E2E2E2E2E2E2E2E2E2E2E2E2E2E2E2E2DCE2E2E2E2E2E2E2E2E2E2E2E2E2E2E2E2E2E2E2E2E2E2E2E2E2E2E2E2E2E2E2E2E2E2E2E2E2E2E2E2E2E2E2E2E2E2E2E2E2E2E2E2E2E2E2
310
E2E2E2E2E2E2E2E2E2E2E2E2E2E2E2E2E2E2E2DCE2E2E2E2E2E2E2E2E2E2E2E2E2E2E2E2E2E2E2E2E2E2E2E2E2E2E2E2E2F5E2E2E2E2E2E2E2E2E2E2E2E2E2E2E2E2E2E2E2E2F5F5EFF5E2E2E2E2E2E2E2E2E2E2E2E2E2E2E2E2E2E2E2E2F5E2E2E2E2E2E2E2E2E2E2E2E2E2E2E2E2E2E2E2E2E2E2E2E2E2E2E2E2E2DCE2E2
310
E2E2E2E2E2E2E2E2E2E2E2E2E2E2E2E2E2E2E2E2E2E2E2E2E2E2E2E2E2E2E2E2E2E2E2E2E2E2E2E2E2E2E2E2E2E2E2E2E2E2E2E2E2E2E2E2E2E2E2E2E2E2E2E2E2E2E2E2E2E2E2E2DCE2E2E2E2E2E2E2E2E2E2E2E2E2E2E2E2E2E2E2E2E2E2E2E2E2E2E2E2E2F5E2E2E2E2E2E2E2E2E2E2E2E2E2E2E2E2E2E2E2E2F5F5EFF5
310
E2E2E2E2E2E2E2E2E2E2E2E2E2E2E2E2E2E2E2E2F5E2E2E2E2E2E2E2E2E2E2E2E2E2E2E2E2E2E2E2E2E2E2E2E2E2E2E2E2E2DCE2E2E2E2E2E2E2E2E2E2E2E2E2E2E2E2E2E2E2E2E2E2E2E2E2E2E2E2E2E2E2E2E2E2E2E2E2E2E2E2E2E2E2E2E2E2E2E2E2E2E2E2E2E2E2E2E2E2E2E2E2E2E2E2E2E2E2E2E2E2E2E2E2E2DCE2
310
E2E2E2E2E2E2E2E2E2E2E2E2E2E2E2E2E2E2E2E2E2E2E2E2E2E2E2E2F5E2E2E2E2E2E2E2E2E2E2E2E2E2E2E2E2E2E2E2E2F5F5EFF5E2E2E2F5E2E2E2E2E2E2E2E2E2E2E2E2E2E2E2E2F5E2E2E2E2E2E2E2E2E2E2E2E2E2E2E2E2E2E2E2E2E2E2E2E2E2E2E2E2E2DCE2E2E2E2E2E2E2E2E2E2E2E2E2E2E2E2E2E2E2E2E2E2E2
310
E2E2E2E2E2E2E2E2E2E2E2E2E2E2E2E2E2E2E2E2E2E2E2E2E2E2E2E2E2E2E2E2E2E2E2E2E2E2E2E2E2E2E2E2E2E2E2E2E2E2E2DCE2E2E2E2E2E2E2E2E2E2E2E2E2E2E2E2E2E2E2E2E2E2E2E2E2E2E2E2E2F5E2E2E2E2E2E2E2E2E2E2E2E2E2E2E2E2F5E2E2E2F5F5EFF5E2E2E2F5E2E2E2E2E2E2E2E2E2E2E2E2E2E2E2E2F5
310
E2E2E2E2E2E2E2E2E2E2E2E2E2E2E2E2E2E2E2E2E2E2E2E2E2E2E2E2E2DCE2E2E2E2E2E2E2E2E2E2E2E2E2E2E2E2E2E2E2E2E2E2E2E2E2E2E2E2E2E2E2E2E2E2E2E2E2E2E2E2E2E2E2E2E2E2E2E2E2E2E2E2E2E2E2E2E2E2E2E2E2E2E2E2E2E2E2E2E2E2E2E2E2E2DCE2E2E2E2E2E2E2E2E2E2E2E2E2E2E2E2E2E2E2E2E2E2
310
E2E2E2E2E2E2E2F5E2E2E2E2E2E2E2E2E2E2E2E2E2E2E2E2F5E2E2E2F5F5EFF5E2E2E2F5E2E2E2E2E2E2E2E2E2E2E2E2E2E2E2E2F5E2E2E2E2E2E2E2E2E2E2E2E2E2E2E2E2E2E2E2E2E2E2E2E2E2E2E2E2E2DCE2E2E2E2E2E2E2E2E2E2E2E2E2E2E2E2E2E2E2E2E2E2E2E2E2E2E2E2E2E2E2E2E2E2E2E2E2E2E2E2E2E2E2E2
310
E2E2E2E2E2E2E2E2E2E2E2E2E2E2E2E2E2E2E2E2E2E2E2E2E2E2E2E2E2E2DCE2E2E2E2E2E2E2E2E2E2E2E2E2E2E2E2E2E2E2E2E2E2E2E2E2E2E2E2E2F5E2E2E2E2E2E2E2E2E2E2E2E2E2E2E2E2F5E2E2E2F5F5EFF5E2E2E2F5E2E2E2E2E2E2E2E2E2E2E2E2E2E2E2E2F5E2E2E2E2E2E2E2E2E2E2E2E2E2E2E2E2E2E2E2E2E2
310
E2E2E2E2E2E2E2E2DCE2E2E2E2E2E2E2E2E2E2E2E2E2E2E2E2E2E2E2E2E2E2E2E2E2E2E2E2E2E2E2E2E2E2E2E2E2BEE2E2E2E2E2E2E2E2E2E2E2E2E2E2E2E2E2E2E2E2E2E2E2E2E2E2E2E2E2E2E2E2E2E2E2E2DCE2E2E2E2E2E2E2E2E2E2E2E2E2E2E2E2E2E2E2E2E2E2E2E2E2E2E2E2E2F5E2E2E2E2E2E2E2E2E2E2E2E2E2
310
E2E2E2F5E2E2E2F5F5EFF5E2E2E2F5E2E2E2E2E2E2E2E2E2E2E2E2E2E2E2E2F5E2E2E2E2E2E2E2E2E2E2E2E2E2E2E2E2E2E2E2E2E2E2E2E2E2E2E2E2E2DCE2E2E2E2E2E2E2E2E2E2E2E2E2E2E2E2E2E2E2E2E2E2E2E2E2E2E2E2E2E2E2E2E2E2E2E227BEE2E2E2E2E2E2E2E2E2E2E2E2E2E2E2E2E2E2E2E2E2E2E2E2E2E2E2
310
E2E2E2E2E2E2E2E2E2DCE2E2E2E2E2E2E2E2E2E2E2E2E2E2E2E2E2E2E2E2E2E2E2E2E2E2E2E2E2F5E2E2E2E2E2E2E2E2E2E2E2E2E2E2E2E2F5E2E2E2F5F5EFF5E2E2E2F5E2E2E2E2E2E2E2E2E2E2E2E2E2E2E2E2F5E2E2E2E2E2E2E2E2E2E2E2E2E2E2E2E2E2E2E2E2E2E2E2E2E2E2E2E2E2DCE2E2E2E2E2E2E2E2E2E2E2E2
310
E2E2E2E2E2E2E2E2E2E2E2E2E2E2E2E2E2E2E2E2E2E2E2E227BEE2E2E2E2E2E2E2E2E2E2E2E2E2E2E2E2E2E2E2E2E2E2E2E2E2E2E2E2E2E2E2E2E2E2E2E2DCE2E2E2E2E2E2E2E2E2E2E2E2E2E2E2E2E2E2E2E2E2E2E2E2E2E2E2E2E2F5E2E2E2E2E2E2E2E2E2E2E2E2E2E2E2E2F5E2E2E2F5F5EFF5E2E2E2F5E2E2E2E2E2E2
310
E2E2E2E2E2E2E2E2E2E2F5E2E2E2E2E2E2E2E2E2E2E2E2E2E2E2E2E2E2E2E2E2E2E2E2E2E2E2E2E2DCE2E2E2E2E2E2E2E2E2E2E2E2E2E2E2E2E2E2E2E2E2E2E2E2E2E2E2E2E2E2E2E2E2E2E2E227BEE2E2E2E2E2E2E2E2E2E2E2E2E2E2E2E2E2E2E2E2E2E2E2E2E2E2E2E2E2E2E2E2E2E2E2E2DCE2E2E2E2E2E2E2E2E2E2E2
310
E2E2E2E2E2E2E2E2E2E2E2E2E2E2E2E2E2E2F5E2E2E2E2E2E2E2E2E2E2E2E2E2E2E2E2F5E2E2E2F5F5EFF5E2E2E2F5E2E2E2E2E2E2E2E2E2E2E2E2E2E2E2E2F5E2E2E2E2E2E2E2E2E2E2E2E2E2E2E2E2E2E2E2E2E2E2E2E2E2E2E2E2E2DCE2E2E2E2E2E2E2E2E2E2E2E2E2E2E2E2E2E2E2E2E2E2E2E2E2E2E2E2E2E2E2E2E2
310
E2E2E227BEE2E2E2E2E2E2E2E2E2E2E2E2E2E2E2E2E2E2E2E2E2E2E2E2E2E2E2E2E2E2E2E2E2E2E2E2DCE2E2E2E2E2E2E2E2E2E2E2E2E2E2E2E2E2E2E2E2E2E2E2E2E2E2E2E2E2F5E2E2E2E2E2E2E2E2E2E2E2E2E2E2E2E2F5E2E2E2F5F5EFF5E2E2E2F5E2E2E2E2E2E2E2E2E2E2E2E2E2E2E2E2F5E2E2E2E2E2E2E2E2E2E2
310
E2E2E2E2E2E2E2E2E2E2E2E2E2E2E2E2E2E2E2DCE2E2E2E2E2E2E2E2E2E2E2E2E2E2E2E2E2E2E2E2E2E2E2E2E2E2E2E2E2E2E2E2E2E2E2E227BEE2E2E2E2E2E2E2E2E2E2E2E2E2E2E2E2E2E2E2E2E2E2E2E2E2E2E2E2E2E2E2E2E2E2E2E2DCE2E2E2E2E2E2E2E2E2E2E2E2E2E2E2E2E2E2E2E2E2E2E2E2E2E2E2E2E2F5E2E2
310
E2E2E2E2E2E2E2E2E2E2E2E2E2E2F5E2E2E2F5F5EFF5E2E2E2F5E2E2E2E2E2E2E2E2E2E2E2E2E2E2E2E2F5E2E2E2E2E2E2E2E2E2E2E2E2E2E2E2E2E2E2E2E2E2E2E2E2E2E2E2E2E2DCE2E2E2E2E2E2E2E2E2E2E2E2E2E2E2E2E2E2E2E2E2E2E2E2E2E2E2E2E2E2E2E2E2E2E2E227BEE2E2E2E2E2E2E2E2E2E2E2E2E2E2E2E2
310
E2E2E2E2E2E2E2E2E2E2E2E2E2E2E2E2E2E2E2E2DCE2E2E2E2E2E2E2E2E2E2E2E2E2E2E2E2E2E2E2E2E2E2E2E2E2E2E2E2E2F5E2E2E2E2E2E2E2E2E2E2E2E2E2E2E2E2F5E2E2E2F5F5EFF5E2E2E2F5E2E2E2E2E2E2E2E2E2E2E2E2E2E2E2E2F5E2E2E2E2E2E2E2E2E2E2E2E2E2E2E2E2E2E2E2E2E2E2E2E2E2E2E2E2E2DCE2
310
E2E2E2E2E2E2E2E2E2E2E2E2E2E2E2E2E2E2E2E2E2E2E2E2E2E2E2E2E2E2E2E2E2E2E227BEE2E2E2E2E2E2E2E2E2E2E2E2E2E2E2E2E2E2E2E2E2E2E2E2E2E2E2E2E2E2E2E2E2E2E2E2DCE2E2E2E2E2E2E2E2E2E2E2E2E2E2E2E2E2E2E2E2E2E2E2E2E2E2E2E2E2F5E2E2E2E2E2E2E2E2E2E2E2E2E2E2E2E2F5E2E2E2F5F5EF
310
F5E2E2E2F5E2E2E2E2E2E2E2E2E2E2E2E2E2E2E2E2F5E2E2E2E2E2E2E2E2E2E2E2E2E2E2E2E2E2E2E2E2E2E2E2E2E2E2E2E2E2DCE2E2E2E2E2E2E2E2E2E2E2E2E2E2E2E2E2E2E2E2E2E2E2E2E2E2E2E2E2E2E2E2E2E2E2E227BEE2E2E2E2E2E2E2E2E2E2E2E2E2E2E2E2E2E2E2E2E2E2E2E2E2E2E2E2E2E2E2E2E2E2E2E2DC
310
E2E2E2E2E2E2E2E2E2E2E2E2E2E2E2E2E2E2E2E2E2E2E2E2E2E2E2E2E2F5E2E2E2E2E2E2E2E2E2E2E2E2E2E2E2E2F5E2E2E2F5F5EFF5E2E2E2F5E2E2E2E2E2E2E2E2E2E2E2E2E2E2E2E2F5E2E2E2E2E2E2E2E2E2E2E2E2E2E2E2E2E2E2E2E2E2E2E2E2E2E2E2E2E2DCE2E2E2E2E2E2E2E2E2E2E2E2E2E2E2E2E2E2E2E2E2E2
310
E2E2E2E2E2E2E2E2E2E2E2E2E2E227BEE2E2E2E2E2E2E2E2E2E2E2E2E2E2E2E2E2E2E2E2E2E2E2E2E2E2E2E2E2E2E2E2E2E2E2E2DCE2E2E2E2E2E2E2E2E2E2E2E2E2E2E2E2E2E2E2E2E2E2E2E2E2E2E2E2E2F5E2E2E2E2E2E2E2E2E2E2E2E2E2E2E2E2F5E2E2E2F5F5EFF5E2E2E2F5E2E2E2E2E2E2E2E2E2E2E2E2E2E2E2E2
310
F5E2E2E2E2E2E2E2E2E2E2E2E2E2E2E2E2E2E2E2E2E2E2E2E2E2E2E2E2E2DCE2E2E2E2E2E2E2E2E2E2E2E2E2E2E2E2E2E2E2E2E2E2E2E2E2E2E2E2E2E2E2E2E2E2E2E227BEE2E2E2E2E2E2E2E2E2E2E2E2E2E2E2E2E2E2E2E2E2E2E2E2E2E2E2E2E2E2E2E2E2E2E2E2DCE2E2E2E2E2E2E2E2E2E2E2E2E2E2E2E2E2E2E2E2E2
310
E2E2E2E2E2E2E2E2F5E2E2E2E2E2E2E2E2E2E2E2E2E2E2E2E2F5E2E2E2F5F5EFF5E2E2E2F5E2E2E2E2E2E2E2E2E2E2E2E2E2E2E2E2F5E2E2E2E2E2E2E2E2E2E2E2E2E2E2E2E2E2E2E2E2E2E2E2E2E2E2E2E2E2DCE2E2E2E2E2E2E2E2E2E2E2E2E2E2E2E2E2E2E2E2E2E2E2E2E2E2E2E2E2E2E2E2E2E2E2E227BEE2E2E2E2E2
310
E2E2E2E2E2E2E2E2E2E2E2E2E2E2E2E2E2E2E2E2E2E2E2E2E2E2E2E2E2E2E2DCE2E2E2E2E2E2E2E2E2E2E2E2E2E2E2E2E2E2E2E2E2E2E2E2E2E2E2E2E2F5E2E2E2E2E2E2E2E2E2E2E2E2E2E2E2E2F5E2E2E2F5F5EFF5E2E2E2F5E2E2E2E2E2E2E2E2E2E2E2E2E2E2E2E2F5E2E2E2E2E2E2E2E2E2E2E2E2E2E2E2E2E2E2E2E2
310
E2E2E2E2E2E2E2E2E2DCE2E2E2E2E2E2E2E2E2E2E2E2E2E2E2E2E2E2E2E2E2E2E2E2E2E2E2E2E2E2E2E2E2E2E2E227BEE2E2E2E2E2E2E2E2E2E2E2E2E2E2E2E2E2E2E2E2E2E2E2E2E2E2E2E2E2E2E2E2E2E2E2E2DCE2E2E2E2E2E2E2E2E2E2E2E2E2E2E2E2E2E2E2E2E2E2E2E2E2E2E2E2E2F5E2E2E2E2E2E2E2E2E2E2E2E2
310
E2E2E2E2F5E2E2E2F5F5EFF5E2E2E2E2E2E2E2E2E2E2E2E2E2E2E2E2E2E2E2E2F5E2E2E2E2E2E2E2E2E2E2E2E2E2E2E2E2E2E2E2E2E2E2E2E2E2E2E2E2E2DCE2E2E2E2E2E2E2E2E2E2E2E2E2E2E2E2E2E2E2E2E2E2E2E2E2E2E2E2E2E2E2E2E2E2E2E227BEE2E2E2E2E2E2E2E2E2E2E2E2E2E2E2E2E2E2E2E2E2E2E2E2E2E2
310
E2E2E2E2E2E2E2E2E2E2DCE2E2E2E2E2E2E2E2E2E2E2E2E2E2E2E2E2E2E2E2E2E2E2E2E2E2E2E2E2F5E2E2E2E2E2E2E2E2E2E2E2E2E2E2E2E2E2E2E2E2F5F5EFF5E2E2E2E2E2E2E2E2E2E2E2E2E2E2E2E2E2E2E2E2F5E2E2E2E2E2E2E2E2E2E2E2E2E2E2E2E2E2E2E2E2E2E2E2E2E2E2E2E2E2DCE2E2E2E2E2E2E2E2E2E2E2
310
E2E2E2E2E2E2E2E2E2E2E2E2E2E2E2E2E2E2E2E2E2E2E2E2E227BEE2E2E2E2E2E2E2E2E2E2E2E2E2E2E2E2E2E2E2E2E2E2E2E2E2E2E2E2E2E2E2E2E2E2E2E2DCE2E2E2E2E2E2E2E2E2E2E2E2E2E2E2E2E2E2E2E2E2E2E2E2E2E2E2E2E2F5E2E2E2E2E2E2E2E2E2E2E2E2E2E2E2E2E2E2E2E2F5F5EFF5E2E2E2E2E2E2E2E2E2
310
E2E2E2E2E2E2E2E2E2E2E2F5E2E2E2E2E2E2E2E2E2E2E2E2E2E2E2E2E2E2E2E2E2E2E2E2E2E2E2E2E2DCE2E2E2E2E2E2E2E2E2E2E2E2E2E2E2E2E2E2E2E2E2E2E2E2E2E2E2E2E2E2E2E2E2E2E2E2E2BEE2E2E2E2E2E2E2E2E2E2E2E2E2E2E2E2E2E2E2E2E2E2E2E2E2E2E2E2E2E2E2E2E2E2E2E2DCE2E2E2E2E2E2E2E2E2E2
310
E2E2E2E2E2E2E2E2E2E2E2E2E2E2E2E2E2E2E2F5E2E2E2E2E2E2E2E2E2E2E2E2E2E2E2E2E2E2E2E2F5F5EFF5E2E2E2E2E2E2E2E2E2E2E2E2E2E2E2E2E2E2E2E2F5E2E2E2E2E2E2E2E2E2E2E2E2E2E2E2E2E2E2E2E2E2E2E2E2E2E2E2E2E2DCE2E2E2E2E2E2E2E2E2E2E2E2E2E2E2E2E2E2E2E2E2E2E2E2E2E2E2E2E2E2E2E2
310
E2E2E2E2E2BEE2E2E2E2E2E2E2E2E2E2E2E2E2E2E2E2E2E2E2E2E2E2E2E2E2E2E2E2E2E2E2E2E2E2E2E2DCE2E2E2E2E2E2E2E2E2E2E2E2E2E2E2E2E2E2E2E2E2E2E2E2E2E2E2E2E2F5E2E2E2E2E2E2E2E2E2E2E2E2E2E2E2E2E2E2E2E2F5F5EFF5E2E2E2E2E2E2E2E2E2E2E2E2E2E2E2E2E2E2E2E2F5E2E2E2E2E2E2E2E2E2
310
E2E2E2E2E2E2E2E2E2E2E2E2E2E2E2E2E2E2E2E2DCE2E2E2E2E2E2E2E2E2E2E2E2E2E2E2E2E2E2E2E2E2E2E2E2E2E2E2E2E2E2E2E2E2E2E2E2E2BEE2E2E2E2E2E2E2E2E2E2E2E2E2E2E2E2E2E2E2E2E2E2E2E2E2E2E2E2E2E2E2E2E2E2E2E2DCE2E2E2E2E2E2E2E2E2E2E2E2E2E2E2E2E2E2E2E2E2E2E2E2E2E2E2E2E2F5E2
310
E2E2E2E2E2E2E2E2E2E2E2E2E2E2E2E2E2E2E2F5F5EFF5E2E2E2E2E2E2E2E2E2E2E2E2E2E2E2E2E2E2E2E2F5E2E2E2E2E2E2E2E2E2E2E2E2E2E2E2E2E2E2E2E2E2E2E2E2E2E2E2E2E2DCE2E2E2E2E2E2E2E2E2E2E2E2E2E2E2E2E2E2E2E2E2E2E2E2E2E2E2E2E2E2E2E2E2E2E2E2E2BEE2E2E2E2E2E2E2E2E2E2E2E2E2E2E2
310
E2E2E2E2E2E2E2E2E2E2E2E2E2E2E2E2E2E2E2E2E2DCE2E2E2E2E2E2E2E2E2E2E2E2E2E2E2E2E2E2E2E2E2E2E2E2E2E2E2E2E2F5E2E2E2E2E2E2E2E2E2E2E2E2E2E2E2E2E2E2E2E2F5F5EFF5E2E2E2E2E2E2E2E2E2E2E2E2E2E2E2E2E2E2E2E2F5E2E2E2E2E2E2E2E2E2E2E2E2E2E2E2E2E2E2E2E2E2E2E2E2E2E2E2E2E2DC
310
E2E2E2E2E2E2E2E2E2E2E2E2E2E2E2E2E2E2E2E2E2E2E2E2E2E2E2E2E2E2E2E2E2E2E2E2E2BEE2E2E2E2E2E2E2E2E2E2E2E2E2E2E2E2E2E2E2E2E2E2E2E2E2E2E2E2E2E2E2E2E2E2E2E2DCE2E2E2E2E2E2E2E2E2E2E2E2E2E2E2E2E2E2E2E2E2E2E2E2E2E2E2E2E2F5E2E2E2E2E2E2E2E2E2E2E2E2E2E2E2E2E2E2E2E2F5F5
310
EFF5E2E2E2E2E2E2E2E2E2E2E2E2E2E2E2E2E2E2E2E2F5E2E2E2E2E2E2E2E2E2E2E2E2E2E2E2E2E2E2E2E2E2E2E2E2E2E2E2E2E2DCE2E2E2E2E2E2E2E2E2E2E2E2E2E2E2E2E2E2E2E2E2E2E2E2E2E2E2E2E2E2E2E2E2E2E2E2E2BEE2E2E2E2E2E2E2E2E2E2E2E2E2E2E2E2E2E2E2E2E2E2E2E2E2E2E2E2E2E2E2E2E2E2E2E2
310
DCE2E2E2E2E2E2E2E2E2E2E2E2E2E2E2E2E2E2E2E2E2E2E2E2E2E2E2E2E2F5E2E2E2E2E2E2E2E2E2E2E2E2E2E2E2E2E2E2E2E2F5F5EFF5E2E2E2E2E2E2E2E2E2E2E2E2E2E2E2E2E2E2E2E2F5E2E2E2E2E2E2E2E2E2E2E2E2E2E2E2E2E2E2E2E2E2E2E2E2E2E2E2E2E2DCE2E2E2E2E2E2E2E2E2E2E2E2E2E2E2E2E2E2E2E2E2
310
E2E2E2E2E2E2E2E2E2E2E2E2E2E2E2E2BEE2E2E2E2E2E2E2E2E2E2E2E2E2E2E2E2E2E2E2E2E2E2E2E2E2E2E2E2E2E2E2E2E2E2E2E2DCE2E2E2E2E2E2E2E2E2E2E2E2E2E2E2E2E2E2E2E2E2E2E2E2E2E2E2E2E2F5E2E2E2E2E2E2E2E2E2E2E2E2E2E2E2E2E2E2E2E2F5F5EFF5E2E2E2E2E2E2E2E2E2E2E2E2E2E2E2E2E2E2E2
310
E2F5E2E2E2E2E2E2E2E2E2E2E2E2E2E2E2E2E2E2E2E2E2E2E2E2E2E2E2E2E2DCE2E2E2E2E2E2E2E2E2E2E2E2E2E2E2E2E2E2E2E2E2C3C3C3C3C3C3E2E2E2E2E2E2E2E2E2E2BEE2E2E2E2E2E2E2E2E2E2E2C3C3C3C3C3C3E2E2E2E2E2E2E2E2E2E2E2E2E2E2E2E2E2E2E2DCE2E2E2E2E2E2E2E2E2E2E2E2E2E2E2E2E2E2E2E2
310
E2E2E2E2E2E2E2E2E2F5E2E2E2E2E2E2E2E2E2E2E2E2E2E2E2E2E2E2E2E2F5F5EFF5E2E2E2F5E2E2E2E2E2E2E2E2E2E2E2E2E2E2E2E2F5E2E2E2E2E2E2E2E2E2E2E2E2E2E2E2E2E2E2E2E2E2E2E2E2E2E2E2E2E2DCE2E2E2E2E2E2E2E2E2E2E2BEE2BEE2E2E2E2E2E2E2C3C3C3C3C3C3E2E2E2E2E2E2E2E2E2E2BEE2E2E2E2
310
E2E2E2E2E2E2E2C3C3C3C3C3C3E2E2E2E2E2E2E2E2BEE2BEE2E2E2E2E2E2E2E2DCE2E2E2E2E2E2E2E2E2E2E2E2E2E2E2E2E2E2E2E2E2E2E2E2E2E2E2E2E2F5E2E2E2E2E2E2E2E2E2E2E2E2E2E2E2E2F5E2E2E2F5F5EFF5E2E2E2F5E2E2E2E2E2E2E2E2E2E2E2E2E2E2E2E2F5E2E2E2E2E2E2E2E2E2E2E2E2E2E2E2E2E2E2E2
310
E2E2E2E2E2E2E2E2E2E2DCE2E2E2E2E2E2E2E2E2E2E2BEBEBEE2E2E2E2E2E2E2F5BEF5F5F5BEE2E2E2E2E2E2E2E2E2E2BEE2E2E2E2E2E2E2E2E2E2E2F5F5F5F5F5F5E2E2E2E2E2E2E227BEBEBEE2E2E2E2E2E2E2E2DCE2E2E2E2E2E2E2E2E2E2E2E2E2E2E2E2E2E2E2E2E2E2E2E2E2E2E2E2E2F5E2E2E2E2E2E2E2E2E2E2E2
310
E2E2E2E2E2F5E2E2E2F5F5EFF5E2E2E2F5E2E2E2E2E2E2E2E2E2E2E2E2E2E2E2E2F5E2E2E2E2E2E2E2E2E2E2E2E2E2E2E2E2E2E2E2E2E2E2E2E2E2E2E2E2E2DCE2E2E2E2E2E2E2E2E2E2E2BE2727E2E2E2E2E2E2E2F5E2E2E2F5F5E2E2E2E2E2E2E2E2E2E2BEE2E2E2E2E2E2E2E2E2E2E2F5E2E2E2F5F5E2E2E2E2E2E2E227
310
27E2BEE2E2E2E2E2E2E2E2DCE2E2E2E2E2E2E2E2E2E2E2E2E2E2E2E2E2E2E2E2E2E2E2E2E2E2E2E2E2F5E2E2E2E2E2E2E2E2E2E2E2E2E2E2E2E2F5E2E2E2F5F5EFF5E2E2E2F5E2E2E2E2E2E2E2E2E2E2E2E2E2E2E2E2F5E2E2E2E2E2E2E2E2E2E2E2E2E2E2E2E2E2E2E2E2E2E2E2E2E2E2E2E2E2DCE2E2E2E2E2E2E2E2E2E2
310
E2BE2727E2E2E2E2E2C3C3F5E2E2E2F5F5E2E2E2E2E2E2E2E2E2E2BEE2E2E2E2E2E2E2E2E2E2E2F5E2E2E2F5F5C3E2E2E2E2E2E22727E2BEE2E2E2E2E2E2E2E2DCE2E2E2E2E2E2E2E2E2E2E2E2E2E2E2E2E2E2E2E2E2E2E2E2E2E2E2E2E2F5E2E2E2E2E2E2E2E2E2E2E2E2E2E2E2E2F5E2E2E2F5F5EFF5E2E2E2F5E2E2E2E2
310
E2E2E2E2E2E2E2E2E2E2E2E2F5E2E2E2E2E2E2E2E2E2E2E2E2E2E2E2E2E2E2E2E2E2E2E2E2E2E2E2E2E2DCE2E2E2E2E2E2E2E2E2E2E2BE27BEC3C3C3F5BEF5F5F5E2E2E2F5F5E2E2E2E2E2E2E2E2E2E2BEE2E2E2E2E2E2E2E2E2E2E2F5E2E2E2F5F5F5F5F5F5C3C3E227BEE2BEE2E2E2E2E2E2E2E2DCE2E2E2E2E2E2E2E2E2
310
E2E2E2E2E2E2E2E2E2E2E2E2E2E2E2E2E2E2E2E2F5E2E2E2E2E2E2E2E2E2E2E2E2E2E2E2E2F5E2E2E2F5F5EFF5E2E2E2F5E2E2E2E2E2E2E2E2E2E2E2E2E2E2E2E2F5E2E2E2E2E2E2E2E2E2E2E2E2E2E2E2E2E2E2E2E2E2E2E2E2E2E2E2E2E2DCE2E2E2E2E2E2E2E2E2E227272727C3E2E2F5E2E2E2E2E2E2F5F5BEE2E2E2E2
310
E2E2E2E2E2E2BEE2E2E2E2E2E2E2E2E2E2E2F5F5F5E2E2E2E2E2E2F5E2C3E2272727BEE2E2E2E2E2E2E2E2DCE2E2E2E2E2E2E2E2E2E2E2E2E2E2E2E2E2E2E2E2E2E2E2E2E2E2E2E2E2F5E2E2E2E2E2E2E2E2E2E2E2E2E2E2E2E2F5E2E2E2F5F5EFF5E2E2E2F5E2E2E2E2E2E2E2E2E2E2E2E2E2E2E2E2F5E2E2E2E2E2E2E2E2
310
E2E2E2E2E2E2E2E2E2E2E2E2E2E2E2E2E2E2E2E2E2DCE2E2E2E2E2E2E2E2E2E227272727C3F5F5BEE2E2E2E2E2E2F5E2E2E2E2E2E2E2E2E2E2E2E2BEE2E2E2E2E2E2E2E2E2E2E2E2E2F5E2E2E2E2E2E2F5F5C3E2272727BEE2E2E2E2E2E2E2E2DCE2E2E2E2E2E2E2E2E2E2E2E2E2E2E2E2E2E2E2E2E2E2E2E2E2E2E2E2E2F5
310
E2E2E2E2E2E2E2E2E2E2E2E2E2E2E2E2F5E2E2E2F5F5EFF5E2E2E2F5E2E2E2E2E2E2E2E2E2E2E2E2E2E2E2E2F5E2E2E2E2E2E2E2E2E2E2E2E2E2E2E2E2E2E2E2E2E2E2E2E2E2E2E2E2E2DCE2E2E2E2E2E2E2E2E2E22727E2BEE2C3F5E2E2E2E2E2E2E2F5E2E2E2E2E2E2E2E2E2E2E2E2BEE2E2E2E2E2E2E2E2E2E2E2E2E2F5
310
E2E2E2E2E2E2E2C3C3E2E2BE27BEE2E2E2E2E2E2E2E2DCE2E2E2E2E2E2E2E2E2E2E2E2E2E2E2E2E2E2E2E2E2E2E2E2E2E2E2E2E2F5E2E2E2E2E2E2E2E2E2E2E2E2E2E2E2E2F5E2E2E2F5F5EFF5E2E2E2F5E2E2E2E2E2E2E2E2E2E2E2E2E2E2E2E2F5E2E2E2E2E2E2E2E2E2E2E2E2E2E2E2E2E2E2E2E2E2E2E2E2E2E2E2E2E2
310
DCE2E2E2E2E2E2E2E2E2E2E2272727E2F5F5E2E2E2E2E2E2E2F5E2E2E2E2E2E2E2E2E2E2E2E2BEE2E2E2E2E2E2E2E2E2E2E2E2E2F5E2E2E2E2E2E2E2F5E2E2272727BEE2E2E2E2E2E2E2E2DCE2E2E2E2E2E2E2E2E2E2E2E2E2E2E2E2E2E2E2E2E2E2E2E2E2E2E2E2E2F5E2E2E2E2E2E2E2E2E2E2E2E2E2E2E2E2F5E2E2E2F5
310
F5EFF5E2E2E2F5E2E2E2E2E2E2E2E2E2E2E2E2E2E2E2E2F5E2E2E2E2E2E2E2E2E2E2E2E2E2E2E2E2E2E2E2E2E2E2E2E2E2E2E2E2E2DCE2E2E2E2E2E2E2E2E2E2E2BE2727E2F5F5E2E2E2E2E2E2E2F5E2E2E2E2E2E2E2E2E2E2E2E2BEE2E2E2E2E2E2E2E2E2E2E2E2E2F5E2E2E2E2E2E2E2F5E2E22727E2BEE2E2E2E2E2E2E2
310
E2DCE2E2E2E2E2E2E2E2E2E2E2E2E2E2E2E2E2E2E2E2E2E2E2E2E2E2E2E2E2F5E2E2E2E2E2E2E2E2E2E2E2E2E2E2E2E2F5E2E2E2F5F5EFF5E2E2E2F5E2E2E2E2E2E2E2E2E2E2E2E2E2E2E2E2F5E2E2E2E2E2E2E2E2E2E2E2E2E2E2E2E2E2E2E2E2E2E2E2E2E2E2E2E2E2DCE2E2E2E2E2E2E2E2E2E2E2BE2727E2F5F5E2E2E2
310
E2E2E2E2F5E2E2E2E2E2E2E2E2E2E2E2E2BEE2E2E2E2E2E2E2E2E2E2E2E2E2F5E2E2E2E2E2E2E2F5E2E22727E2BEE2E2E2E2E2E2E2E2DCE2E2E2E2E2E2E2E2E2E2E2E2E2E2E2E2E2E2E2E2E2E2E2E2E2E2E2E2E2F5E2E2E2E2E2E2E2E2E2E2E2E2E2E2E2E2F5E2E2E2F5F5EFF5E2E2E2F5E2E2E2E2E2E2E2E2E2E2E2E2E2E2
310
E2E2F5E2E2E2E2E2E2E2E2E2E2E2E2E2E2E2E2E2E2E2E2E2E2E2E2E2E2E2E2E2DCE2E2E2E2E2E2E2E2E2E2E2BEE2BEE2F5F5E2E2F5F5F5F5F5BEE2E2E2E2E2E2E2E2E2E2E2E2BEE2E2E2E2E2E2E2E2E2E2E2E2E2F5F5F5F5F5F5E2E2F5E2E2E2BEE2BEE2E2E2E2E2E2E2E2DCE2E2E2E2E2E2E2E2E2E2E2E2E2E2E2E2E2E2E2
310
E2E2E2E2E2E2E2E2E2E2F5E2E2E2E2E2E2E2E2E2E2E2E2E2E2E2E2F5E2E2E2F5F5EFF5E2E2E2F5E2E2E2E2E2E2E2E2E2E2E2E2E2E2E2E2F5E2E2E2E2E2E2E2E2E2E2E2E2E2E2E2E2E2E2E2E2E2E2E2E2E2E2E2E2E2DCE2E2E2E2E2E2E2E2E2E2E2BEBEBEE2BEF5BEF5BEE2E2E2E2C3E2E2E2E2E2E2E2E2E2E2E2E2BEE2E2E2
310
E2E2E2E2E2E2E2E2E2E2C3E2E2E2F5F5F5F5F5BEE2E2BEBEBEE2E2E2E2E2E2E2E2DCE2E2E2E2E2E2E2E2E2E2E2E2E2E2E2E2E2E2E2E2E2E2E2E2E2E2E2E2E2F5E2E2E2E2E2E2E2E2E2E2E2E2E2E2E2E2F5E2E2E2F5F5EFF5E2E2E2F5E2E2E2E2E2E2E2E2E2E2E2E2E2E2E2E2F5E2E2E2E2E2E2E2E2E2E2E2E2E2E2E2E2E2E2
310
E2E2E2E2E2E2E2E2E2E2E2DCE2E2E2E2E2E2E2E2E2E2E2E2E2E2E2E2C3C3E2E2E2E2E2E2C3E2E2E2E2E2E2E2E2E2E2E2E2BEE2E2E2E2E2E2E2E2E2E2E2E2E2C3E2E2E2E2E2E2C3C3E2E2E2E2E2E2E2E2E2E2E2E2E2E2DCE2E2E2E2E2E2E2E2E2E2E2E2E2E2E2E2E2E2E2E2E2E2E2E2E2E2E2E2E2F5E2E2E2E2E2E2E2E2E2E2
310
E2E2E2E2E2E2F5E2E2E2F5F5EFF5E2E2E2F5E2E2E2E2E2E2E2E2E2E2E2E2E2E2E2E2F5E2E2E2E2E2E2E2E2E2E2E2E2E2E2E2E2E2E2E2E2E2E2E2E2E2E2E2E2E2DCE2E2E2E2E2E2E2E2E2E2E2E2E2E2E2E2C3C3C3C3C3C3C3C3C3E2E2E2E2E2E2E2E2E2E2E2E2BEE2E2E2E2E2E2E2E2E2E2E2E2E2C3C3C3C3C3C3C3C3C3E2E2
310
E2E2E2E2E2E2E2E2E2E2E2E2DCE2E2E2E2E2E2E2E2E2E2E2E2E2E2E2E2E2E2E2E2E2E2E2E2E2E2E2E2E2F5E2E2E2E2E2E2E2E2E2E2E2E2E2E2E2E2F5E2E2E2F5F5EFF5E2E2E2F5E2E2E2E2E2E2E2E2E2E2E2E2E2E2E2E2F5E2E2E2E2E2E2E2E2E2E2E2E2E2E2E2E2E2E2E2E2E2E2E2E2E2E2E2E2E2DCE2E2E2E2E2E2E2E2E2
310
E2E2E2E2E2E2E2E2E2E2E2E2E2E2E2E2E2E2E2E2E2E2E2E2E2E2E2E2BEE2E2E2E2E2E2E2E2E2E2E2E2E2E2E2E2E2E2E2E2E2E2E2E2E2E2E2E2E2E2E2E2E2E2E2E2DCE2E2E2E2E2E2E2E2E2E2E2E2E2E2E2E2E2E2E2E2E2E2E2E2E2E2E2E2E2F5E2E2E2E2E2E2E2E2E2E2E2E2E2E2E2E2F5E2E2E2F5F5EFF5E2E2E2E2E2E2E2
310
E2E2E2E2E2E2E2E2E2E2E2E2E2F5E2E2E2E2E2E2E2E2E2E2E2E2E2E2E2E2E2E2E2E2E2E2E2E2E2E2E2E2E2DCE2E2E2E2E2E2E2E2E2E2E2E2E2E2E2BE272727BEBE2727272727BEE2E2E2E2E2E2E2E2E2E2BEE2E2E2E2E2E2E2E2E2E2BEBE2727272727BEBE2727BEE2E2E2E2E2E2E2E2E2E2E2E2E2E2DCE2E2E2E2E2E2E2E2
310
E2E2E2E2E2E2E2E2E2E2E2E2E2E2E2E2E2E2E2E2E2F5E2E2E2E2E2E2E2E2E2E2E2E2E2E2E2E2E2E2E2E2F5F5EFF5E2E2E2E2E2E2E2E2E2E2E2E2E2E2E2E2E2E2E2E2F5E2E2E2E2E2E2E2E2E2E2E2E2E2E2E2E2E2E2E2E2E2E2E2E2E2E2E2E2E2DCE2E2E2E2E2E2E2E2E2E2E2E2E2E2E2BEBEBEBEBEBEBEBEBEBEBEBEE2E2E2
310
E2E2E2E2E2E2E2BEE2E2E2E2E2E2E2E2E2E2E2BEBEBEBEBEBEBEBEBEBEBEE2E2E2E2E2E2E2E2E2E2E2E2E2E2DCE2E2E2E2E2E2E2E2E2E2E2E2E2E2E2E2E2E2E2E2E2E2E2E2E2E2E2E2E2F5E2E2E2E2E2E2E2E2E2E2E2E2E2E2E2E2E2E2E2E2F5F5EFF5E2E2E2E2E2E2E2E2E2E2E2E2E2E2E2E2E2E2E2E2F5E2E2E2E2E2E2E2
310
E2E2E2E2E2E2E2E2E2E2E2E2E2E2E2E2E2E2E2E2E2E2DCE2E2E2E2E2E2E2E2E2E2E2E2E2E2E2BEBEE2E227272727E2E2E2BEE2E2E2E2E2E2E2E2E2E2BEE2E2E2E2E2E2E2E2E2E2E2BEE2E2E2272727E2E2E2BEE2E2E2E2E2E2E2E2E2E2E2E2E2E2DCE2E2E2E2E2E2E2E2E2E2E2E2E2E2E2E2E2E2E2E2E2E2E2E2E2E2E2E2E2
310
F5E2E2E2E2E2E2E2E2E2E2E2E2E2E2E2E2E2E2E2E2F5F5EFF5E2E2E2E2E2E2E2E2E2E2E2E2E2E2E2E2E2E2E2E2F5E2E2E2E2E2E2E2E2E2E2E2E2E2E2E2E2E2E2E2E2E2E2E2E2E2E2E2E2E2DCE2E2E2E2E2E2E2E2E2E2E2E2E2E2E2E2E2E2E2E2E2E2E2E2E2E2E2E2E2E2E2E2E2E2E2E2E2BEE2E2E2E2E2E2E2E2E2E2E2E2E2
310
E2E2E2E2E2E2E2E2E2E2E2E2E2E2E2E2E2E2E2E2E2E2E2DCE2E2E2E2E2E2E2E2E2E2E2E2E2E2E2E2E2E2E2E2E2E2E2E2E2E2E2E2E2F5E2E2E2E2E2E2E2E2E2E2E2E2E2E2E2E2E2E2E2E2F5F5EFF5E2E2E2E2E2E2E2E2E2E2E2E2E2E2E2E2E2E2E2E2F5E2E2E2E2E2E2E2E2E2E2E2E2E2E2E2E2E2E2E2E2E2E2E2E2E2E2E2E2
310
E2DCE2E2E2E2E2E2E2E2E2E2E2E2E2E2E2E2E2E2E2E2E2E2E2E2E2E2E2E2E2E2E2E2E2E2E2E2E2BEE2E2E2E2E2E2E2E2E2E2E2E2E2E2E2E2E2E2E2E2E2E2E2E2E2E2E2E2E2E2E2E2E2E2E2E2DCE2E2E2E2E2E2E2E2E2E2E2E2E2E2E2E2E2E2E2E2E2E2E2E2E2E2E2E2E2F5E2E2E2E2E2E2E2E2E2E2E2E2E2E2E2E2E2E2E2E2
310
F5F5EFF5E2E2E2E2E2E2E2E2E2E2E2E2E2E2E2E2E2E2E2E2F5E2E2E2E2E2E2E2E2E2E2E2E2E2E2E2E2E2E2E2E2E2E2E2E2E2E2E2E2E2DCE2E2E2E2E2E2E2E2E2E2E2E2E2E2E2E2E2E2E2E2E2E2E2E2E2E2E2E2E2E2E2E2E2E2E2E2E2BEE2E2E2E2E2E2E2E2E2E2E2E2E2E2E2E2E2E2E2E2E2E2E2E2E2E2E2E2E2E2E2E2E2E2
310
E2E2DCE2E2E2E2E2E2E2E2E2E2E2E2E2E2E2E2E2E2E2E2E2E2E2E2E2E2E2E2E2F5E2E2E2E2E2E2E2E2E2E2E2E2E2E2E2E2E2E2E2E2F5F5EFF5E2E2E2E2E2E2E2E2E2E2E2E2E2E2E2E2E2E2E2E2F5E2E2E2E2E2E2E2E2E2E2E2E2E2E2E2E2E2E2E2E2E2E2E2E2E2E2E2E2E2DCE2E2E2E2E2E2E2E2E2E2E2E2E2E2E2E2E2E2E2
310
E2E2E2E2E2E2E2E2E2E2E2E2E2E2E2E2E2E2BEE2E2E2E2E2E2E2E2E2E2E2E2E2E2E2E2E2E2E2E2E2E2E2E2E2E2E2E2E2E2E2E2E2E2E2E2DCE2E2E2E2E2E2E2E2E2E2E2E2E2E2E2E2E2E2E2E2E2E2E2E2E2E2E2E2E2F5E2E2E2E2E2E2E2E2E2E2E2E2E2E2E2E2E2E2E2E2F5F5EFF5E2E2E2E2E2E2E2E2E2E2E2E2E2E2E2E2E2
310
E2E2E2F5E2E2E2E2E2E2E2E2E2E2E2E2E2E2E2E2E2E2E2E2E2E2E2E2E2E2E2E2E2DCE2E2E2E2E2E2E2E2E2E2E2E2E2E2E2E2E2E2E2E2E2E2E2E2E2E2E2E2E2E2E2E2E2E2E2E2E2E2E2E2E2E2E2E2E2E2E2E2E2E2E2E2E2E2E2E2E2E2E2E2E2E2E2E2E2E2E2E2E2E2E2E2E2E2DCE2E2E2E2E2E2E2E2E2E2E2E2E2E2E2E2E2E2
310
E2E2E2E2E2E2E2E2E2E2E2F5E2E2E2E2E2E2E2E2E2E2E2E2E2E2E2E2E2E2E2E2F5F5EFF5E2E2E2E2E2E2E2E2E2E2E2E2E2E2E2E2E2E2E2E2F5E2E2E2E2E2E2E2E2E2E2E2E2E2E2E2E2E2E2E2E2E2E2E2E2E2E2E2E2E2DCE2E2E2E2E2E2E2E2E2E2E2E2E2E2E2E2E2E2E2E2E2E2E2E2E2E2E2E2E2E2E2E2E2E2E2E2E2E2E2E2
310
E2E2E2E2E2E2E2E2E2E2E2E2E2E2E2E2E2E2E2E2E2E2E2E2E2E2E2E2E2E2E2E2E2E2DCE2E2E2E2E2E2E2E2E2E2E2E2E2E2E2E2E2E2E2E2E2E2E2E2E2E2E2E2E2F5E2E2E2E2E2E2E2E2E2E2E2E2E2E2E2E2E2E2E2E2F5F5EFF5E2E2E2F5E2E2E2E2E2E2E2E2E2E2E2E2E2E2E2E2F5E2E2E2E2E2E2E2E2E2E2E2E2E2E2E2E2E2
310
E2E2E2E2E2E2E2E2E2E2E2E2DCE2E2E2E2E2E2E2E2E2E2E2E2E2E2E2E2E2E2E2E2E2E2E2E2E2E2E2E2E2E2E2E2E2E2E2E2E2E2E2E2E2E2E2E2E2E2E2E2E2E2E2E2E2E2E2E2E2E2E2E2E2E2E2E2E2E2E2E2E2E2E2E2E2E2DCE2E2E2E2E2E2E2E2E2E2E2E2E2E2E2E2E2E2E2E2E2E2E2E2E2E2E2E2E2F5E2E2E2E2E2E2E2E2E2
310
E2E2E2E2E2E2E2F5E2E2E2F5F5EFF5E2E2E2F5E2E2E2E2E2E2E2E2E2E2E2E2E2E2E2E2F5E2E2E2E2E2E2E2E2E2E2E2E2E2E2E2E2E2E2E2E2E2E2E2E2E2E2E2E2E2DCE2E2E2E2E2E2E2E2E2E2E2E2E2E2E2E2E2E2E2E2E2E2E2E2E2E2E2E2E2E2E2E2E2E2E2E2E2E2E2E2E2E2E2E2E2E2E2E2E2E2E2E2E2E2E2E2E2E2E2E2E2
310
E2E2E2E2E2E2E2E2E2E2E2E2E2DCE2E2E2E2E2E2E2E2E2E2E2E2E2E2E2E2E2E2E2E2E2E2E2E2E2E2E2E2E2F5E2E2E2E2E2E2E2E2E2E2E2E2E2E2E2E2F5E2E2E2F5F5EFF5E2E2E2F5E2E2E2E2E2E2E2E2E2E2E2E2E2E2E2E2F5E2E2E2E2E2E2E2E2E2E2E2E2E2E2E2E2E2E2E2E2E2E2E2E2E2E2E2E2E2DCE2E2E2E2E2E2E2E2
310
E2E2E2E2E2E2E2E2E2E2E2E2E2E2E2E2E2E2E2E2E2E2E2E2E2E2E2E2E2E2E2E2E2E2E2E2E2E2E2E2E2E2E2E2E2E2E2E2E2E2E2E2E2E2E2E2E2E2E2E2E2E2E2E2E2E2DCE2E2E2E2E2E2E2E2E2E2E2E2E2E2E2E2E2E2E2E2E2E2E2E2E2E2E2E2E2F5E2E2E2E2E2E2E2E2E2E2E2E2E2E2E2E2F5E2E2E2F5F5EFF5E2E2E2F5E2E2
310
E2E2E2E2E2E2E2E2E2E2E2E2E2E2F5E2E2E2E2E2E2E2E2E2E2E2E2E2E2E2E2E2E2E2E2E2E2E2E2E2E2E2E2E2DCE2E2E2E2E2E2E2E2E2E2E2E2E2E2E2E2E2E2E2E2E2E2E2E2E2E2E2E2E2E2E2E2E2E2E2E2E2E2E2E2E2E2E2E2E2E2E2E2E2E2E2E2E2E2E2E2E2E2E2E2E2E2E2E2E2E2E2E2E2E2E2E2E2E2DCE2E2E2E2E2E2E2
310
E2E2E2E2E2E2E2E2E2E2E2E2E2E2E2E2E2E2E2E2E2E2F5E2E2E2E2E2E2E2E2E2E2E2E2E2E2E2E2F5E2E2E2F5F5EFF5E2E2E2F5E2E2E2E2E2E2E2E2E2E2E2E2E2E2E2E2F5E2E2E2E2E2E2E2E2E2E2E2E2E2E2E2E2E2E2E2E2E2E2E2E2E2E2E2E2E2DCE2E2E2E2E2E2E2E2E2E2E2E2E2E2E2E2E2E2E2E2E2E2E2E2E2E2E2E2E2
310
E2E2E2E2E2E2E2E2E2E2E2E2E2E2E2E2E2E2E2E2E2E2E2E2E2E2E2E2E2E2E2E2E2E2E2E2E2E2E2E2E2E2E2E2E2DCE2E2E2E2E2E2E2E2E2E2E2E2E2E2E2E2E2E2E2E2E2E2E2E2E2E2E2E2E2F5E2E2E2E2E2E2E2E2E2E2E2E2E2E2E2E2F5E2E2E2F5F5EFF5E2E2E2F5E2E2E2E2E2E2E2E2E2E2E2E2E2E2E2E2F5E2E2E2E2E2E2
310
E2E2E2E2E2E2E2E2E2E2E2E2E2E2E2E2E2E2E2E2E2E2E2DCE2E2E2E2E2E2E2E2E2E2E2E2E2E2E2E2E2E2E2E2E2E2E2E2E2E2E2E2E2E2E2E2E2E2E2E2E2E2E2E2E2E2E2E2E2E2E2E2E2E2E2E2E2E2E2E2E2E2E2E2E2E2E2E2E2E2E2E2E2E2E2E2E2E2DCE2E2E2E2E2E2E2E2E2E2E2E2E2E2E2E2E2E2E2E2E2E2E2E2E2E2E2E2
310
E2F5E2E2E2E2E2E2E2E2E2E2E2E2E2E2E2E2F5E2E2E2F5F5EFF5E2E2E2F5E2E2E2E2E2E2E2E2E2E2E2E2E2E2E2E2F5E2E2E2E2E2E2E2E2E2E2E2E2E2E2E2E2E2E2E2E2E2E2E2E2E2E2E2E2E2DCE2E2E2E2E2E2E2E2E2E2E2E2E2E2E2E2E2E2E2E2E2E2E2E2E2E2E2E2E2E2E2E2E2E2E2E2E2E2E2E2E2E2E2E2E2E2E2E2E2E2
310
E2E2E2E2E2E2E2E2E2E2E2E2E2E2E2E2E2E2E2E2E2E2E2E2DCE2E2E2E2E2E2E2E2E2E2E2E2E2E2E2E2E2E2E2E2E2E2E2E2E2E2E2E2E2F5E2E2E2E2E2E2E2E2E2E2E2E2E2E2E2E2F5E2E2E2F5F5EFF5E2E2E2F5E2E2E2E2E2E2E2E2E2E2E2E2E2E2E2E2F5E2E2E2E2E2E2E2E2E2E2E2E2E2E2E2E2E2E2E2E2E2E2E2E2E2E2E2
310
E2E2DCE2E2E2E2E2E2E2E2E2E2E2E2E2E2E2E2E2E2E2E2E2E2E2E2E2E2E2E2E2E2E2E2E2E2E2E2E2E2E2E2E2E2E2E2E2E2E2E2E2E2E2E2E2E2E2E2E2E2E2E2E2E2E2E2E2E2E2E2E2E2E2E2E2E2DCE2E2E2E2E2E2E2E2E2E2E2E2E2E2E2E2E2E2E2E2E2E2E2E2E2E2E2E2E2F5E2E2E2E2E2E2E2E2E2E2E2E2E2E2E2E2F5E2E2
310
E2F5F5EFF5E2E2E2F5E2E2E2E2E2E2E2E2E2E2E2E2E2E2E2E2F5E2E2E2E2E2E2E2E2E2E2E2E2E2E2E2E2E2E2E2E2E2E2E2E2E2E2E2E2E2DCE2E2E2E2E2E2E2E2E2E2E2E2E2E2E2E2E2E2E2E2E2E2E2E2E2E2E2E2E2E2E2E2E2E2E2E2E2E2E2E2E2E2E2E2E2E2E2E2E2E2E2E2E2E2E2E2E2E2E2E2E2E2E2E2E2E2E2E2E2E2E2
310
E2E2E2DCE2E2E2E2E2E2E2E2E2E2E2E2E2E2E2E2E2E2E2E2E2E2E2E2E2E2E2E2E2F5E2E2E2E2E2E2E2E2E2E2E2E2E2E2E2E2F5E2E2E2F5F5EFF5E2E2E2F5E2E2E2E2E2E2E2E2E2E2E2E2E2E2E2E2F5E2E2E2E2E2E2E2E2E2E2E2E2E2E2E2E2E2E2E2E2E2E2E2E2E2E2E2E2E2DCE2E2E2E2E2E2E2E2E2E2E2E2E2E2E2E2E2E2
310
E2E2E2E2E2E2E2E2E2E2E2E2E2E2E2E2E2E2E2E2E2E2E2E2E2E2E2E2E2E2E2E2E2E2E2E2E2E2E2E2E2E2E2E2E2E2E2E2E2E2E2E2E2E2E2E2DCE2E2E2E2E2E2E2E2E2E2E2E2E2E2E2E2E2E2E2E2E2E2E2E2E2E2E2E2E2F5E2E2E2E2E2E2E2E2E2E2E2E2E2E2E2E2F5E2E2E2F5F5EFF5E2E2E2F5E2E2E2E2E2E2E2E2E2E2E2E2
310
E2E2E2E2F5E2E2E2E2E2E2E2E2E2E2E2E2E2E2E2E2E2E2E2E2E2E2E2E2E2E2E2E2E2DCE2E2E2E2E2E2E2E2E2E2E2E2E2E2E2E2E2E2E2E2E2E2E2E2E2E2E2E2E2E2E2E2E2E2E2E2E2E2E2E2E2E2E2E2E2E2E2E2E2E2E2E2E2E2E2E2E2E2E2E2E2E2E2E2E2E2E2E2E2E2E2E2E2E2DCE2E2E2E2E2E2E2E2E2E2E2E2E2E2E2E2E2
310
E2E2E2E2E2E2E2E2E2E2E2E2F5E2E2E2E2E2E2E2E2E2E2E2E2E2E2E2E2F5E2E2E2F5F5EFF5E2E2E2F5E2E2E2E2E2E2E2E2E2E2E2E2E2E2E2E2F5E2E2E2E2E2E2E2E2E2E2E2E2E2E2E2E2E2E2E2E2E2E2E2E2E2E2E2E2E2DCE2E2E2E2E2E2E2E2E2E2E2E2E2E2E2E2E2E2E2E2E2E2E2E2E2E2E2E2E2E2E2E2E2E2E2E2E2E2E2
310
E2E2E2E2E2E2E2E2E2E2E2E2E2E2E2E2E2E2E2E2E2E2E2E2E2E2E2E2E2E2E2E2E2E2E2DCE2E2E2E2E2E2E2E2E2E2E2E2E2E2E2E2E2E2E2E2E2E2E2E2E2E2E2E2E2F5E2E2E2E2E2E2E2E2E2E2E2E2E2E2E2E2F5E2E2E2F5F5EFF5E2E2E2F5E2E2E2E2E2E2E2E2E2E2E2E2E2E2E2E2F5E2E2E2E2E2E2E2E2E2E2E2E2E2E2E2E2
310
E2E2E2E2E2E2E2E2E2E2E2E2E2DCE2E2E2E2E2E2E2E2E2E2E2E2E2E2E2E2E2E2E2E2E2E2E2E2E2E2E2E2E2E2E2E2E2E2E2E2E2E2E2E2E2E2E2E2E2E2E2E2E2E2E2E2E2E2E2E2E2E2E2E2E2E2E2E2E2E2E2E2E2E2E2E2E2E2DCE2E2E2E2E2E2E2E2E2E2E2E2E2E2E2E2E2E2E2E2E2E2E2E2E2E2E2E2E2F5E2E2E2E2E2E2E2E2
310
E2E2E2E2E2E2E2E2F5E2E2E2F5F5EFF5E2E2E2F5E2E2E2E2E2E2E2E2E2E2E2E2E2E2E2E2F5E2E2E2E2E2E2E2E2E2E2E2E2E2E2E2E2E2E2E2E2E2E2E2E2E2E2E2E2E2DCE2E2E2E2E2E2E2E2E2E2E2E2E2E2E2E2E2E2E2E2E2E2E2E2E2E2E2E2E2E2E2E2E2E2E2E2E2E2E2E2E2E2E2E2E2E2E2E2E2E2E2E2E2E2E2E2E2E2E2E2
310
E2E2E2E2E2E2E2E2E2E2E2E2E2E2DCE2E2E2E2E2E2E2E2E2E2E2E2E2E2E2E2E2E2E2E2E2E2E2E2E2E2E2E2E2F5E2E2E2E2E2E2E2E2E2E2E2E2E2E2E2E2F5E2E2E2F5F5EFF5E2E2E2F5E2E2E2E2E2E2E2E2E2E2E2E2E2E2E2E2F5E2E2E2E2E2E2E2E2E2E2E2E2E2E2E2E2E2E2E2E2E2E2E2E2E2E2E2E2E2DCE2E2E2E2E2E2E2
310
E2E2E2E22727272727272727272727272727272727272727272727272727272727272727272727272727272727272727272727E2E2E2E2E2E2E2E2E2E2E2E2E2E2E2E2DCE2E2E2E2E2E2E2E2E2E2E2E2E2E2E2E2E2E2E2E2E2E2E2E2E2E2E2E2E2F5E2E2E2E2E2E2E2E2E2E2E2E2E2E2E2E2F5E2E2E2F5F5EFF5E2E2E2F5E2
310
E2E2E2E2E2E2E2E2E2E2E2E2E2E2E2F5E2E2E2E2E2E2E2E2E2E2E2E2E2E2E2E2E2E2E2E2E2E2E2E2E2E2E2E2E2DCE2E2E2E2E2E2E2E2E2E2E2E2E2E2E2E2E2E2E2E2E2E2E2E2E2E2E2E2E2E2E2E2E2E2E2E2E2E2E2E2E2E2E2E2E2E2E2E2E2E2E2E2E2E2E2E2E2E2E2E2E2E2E2E2E2E2E2E2E2E2E2E2E2E2DCE2E2E2E2E2E2
310
E2E2E2E2E2E2E2E2E2E2E2E2E2E2E2E2E2E2E2E2E2E2E2F5E2E2E2E2E2E2E2E2E2E2E2E2E2E2E2E2F5E2E2E2F5F5EFF5E2E2E2F5E2E2E2E2E2E2E2E2E2E2E2E2E2E2E2E2F5E2E2E2E2E2E2E2E2E2E2E2E2E2E2E2E2E2E2E2E2E2E2E2E2E2E2E2E2E2DCE2E2E2E2E2E2E2E2E2E2272727272727272727272727272727E2E2E2
310
E2E2E2E2E2E2E2E2E2E2E2E2E2E2E2E2E2E2E2E2E2E2E2E2E2E2E2E2E2E2E2E2E2E2E2E2E2E2E2E2E2E2E2E2E2E2DCE2E2E2E2E2E2E2E2E2E2E2E2E2E2E2E2E2E2E2E2E2E2E2E2E2E2E2E2E2F5E2E2E2E2E2E2E2E2E2E2E2E2E2E2E2E2F5E2E2E2F5F5EFF5E2E2E2E2E2E2E2E2E2E2E2E2E2E2E2E2E2E2E2E2F5E2E2E2E2E2
310
E2E2E2E2E2E2E2E2E2E2E2E2E2E2E2E2E2E2E2E2E2E2E2E2DCE2E2E2E2E2E2E2E2E2E2272727272727272727272727272727E2E2E2E2E2E2E2E2E2E2E2E2E2E2E2E2E2E2E2E2E2E2E2E2E2E2E2E2E2E2E2E2E2E2E2E2E2E2E2E2E2E2E2E2E2E2E2E2E2DCE2E2E2E2E2E2E2E2E2E2E2E2E2E2E2E2E2E2E2E2E2E2E2E2E2E2E2
310
E2E2F5E2E2E2E2E2E2E2E2E2E2E2E2E2E2E2E2E2E2E2E2F5F5EFF5E2E2E2E2E2E2E2E2E2E2E2E2E2E2E2E2E2E2E2E2F5E2E2E2E2E2E2E2E2E2E2E2E2E2E2E2E2E2E2E2E2E2E2E2E2E2E2E2E2E2DCE2E2E2E2E2E2E2E2E2E2E2E2E2E2E2E2E2E2E2E2E2E2E2E2E2E2E2E2E2E2E2E2E2E2E2E2E2E2E2E2E2E2E2E2E2E2E2E2E2
310
E2E2E2E2E2E2E2E2E2E2E2E2E2E2E2E2E2E2E2E2E2E2E2E2E2DCE2E2E2E2E2E2E2E2E2E2E2E2E2E2E2E2E2E2E2E2E2E2E2E2E2E2E2E2E2F5E2E2E2E2E2E2E2E2E2E2E2E2E2E2E2E2E2E2E2E2F5F5EFF5E2E2E2E2E2E2E2E2E2E2E2E2E2E2E2E2E2E2E2E2F5E2E2E2E2E2E2E2E2E2E2E2E2E2E2E2E2E2E2E2E2E2E2E2E2E2E2
310
E2E2E2DCE2E2E2E2E2E2E2E2E2E2E2E2E2E2E2E2E2E2E2E2E2E2E2E2E2E2E2E2E2E2E2E2E2E2E2E2E2E2E2E2E2E2E2E2E2E2E2E2E2E2E2E2E2E2E2E2E2E2E2E2E2E2E2E2E2E2E2E2E2E2E2E2E2E2DCE2E2E2E2E2E2E2E2E2E2E2E2E2E2E2E2E2E2E2E2E2E2E2E2E2E2E2E2E2F5E2E2E2E2E2E2E2E2E2E2E2E2E2E2E2E2E2E2
310
E2E2F5F5EFF5E2E2E2E2E2E2E2E2E2E2E2E2E2E2E2E2E2E2E2E2F5E2E2E2E2E2E2E2E2E2E2E2E2E2E2E2E2E2E2E2E2E2E2E2E2E2E2E2E2E2DCE2E2E2E2E2E2E2E2E2E2E2E2E2E2E2E2E2E2E2E2E2E2E2E2E2E2E2E2E2E2E2E2E2E2E2E2E2E2E2E2E2E2E2E2E2E2E2E2E2E2E2E2E2E2E2E2E2E2E2E2E2E2E2E2E2E2E2E2E2E2
310
E2E2E2E2DCE2E2E2E2E2E2E2E2E2E2E2E2E2E2E2E2E2E2E2E2E2E2E2E2E2E2E2E2E2F5E2E2E2E2E2E2E2E2E2E2E2E2E2E2E2E2E2E2E2E2F5F5EFF5E2E2E2E2E2E2E2E2E2E2E2E2E2E2E2E2E2E2E2E2F5F5F5F5F5F5F5F5F5F5F5F5F5F5F5F5F5F5F5F5F5F5F5F5F5F5F5F5F5F5F5F5F5F5F5F5F5F5F5F5F5F5F5F5F5F5F5F5
310
F5F5F5F5F5F5F5F5F5F5F5F5F5F5F5F5F5F5F5F5F5F5F5F5F5F5F5F5F5F5F5F5F5F5F5F5F5F5F5F5F5F5F5F5F5F5F5F5F5F5F5F5F5F5F5F5F5F5F5F5F5F5F5F5F5F5F5F5F5F5F5F5F5F5F5F5F5F5F5F5F5F5F5F5F5F5F5F5E2E2E2E2E2E2E2E2E2E2E2E2E2E2E2E2E2E2E2E2F5F5EFF5E2E2E2E2E2E2E2E2E2E2E2E2E2E2E2
310
E2E2E2E2E2E2E2E2E2E2E2E2E2E2E2E2E2E2E2E2E2E2E2E2E2E2E2E2E2E2E2E2E2E2E2E2E2E2E2E2E2E2E2E2E2E2E2E2E2E2E2E2E2E2E2E2E2E2E2E2E2E2E2E2E2E2E2E2E2E2E2E2E2E2E2E2E2E2E2E2E2E2E2E2E2E2E2E2E2E2E2E2E2E2E2E2E2E2E2E2E2E2E2E2E2E2E2E2E2E2E2E2E2E2E2E2E2E2E2E2E2E2E2E2E2E2E2
310
E2E2E2E2E2E2E2E2E2E2E2E2E2E2E2E2E2E2E2E2E2E2E2E2E2E2E2E2E2E2E2E2E2E2F5F5EFF5E2E2E2E2E2E2E2E2E2E2E2E2E2E2E2E2E2E2E2E2E2E2E2E2E2E2E2E2E2E2E2E2E2E2E2E2E2E2E2E2E2E2E2E2E2E2E2E2E2E2E2E2E2E2E2E2E2E2E2E2E2E2E2E2E2E2E2E2E2E2E2E2E2E2E2E2E2E2E2E2E2E2E2E2E2E2E2E2E2
310
E2E2E2E2E2E2E2E2E2E2E2E2E2E2E2E2E2E2E2E2E2E2E2E2E2E2E2E2E2E2E2E2E2E2E2E2E2E2E2E2E2E2E2E2E2E2E2E2E2E2E2E2E2E2E2E2E2E2E2E2E2E2E2E2E2E2E2E2E2E2E2E2E2E2E2E2E2E2E2E2E2E2E2E2E2E2E2F5F5EFF5E2E2E2E2E2E2E2E2E2E2E2E2E2E2E2E2E2E2E2E2E2E2E2E2E2E2E2E2E2E2E2E2E2E2E2E2
310
E2E2E2E2E2E2E2E2E2E2E2E2E2E2E2E2E2E2E2E2E2E2E2E2E2E2E2E2E2E2E2E2E2E2E2E2E2E2E2E2E2E2E2E2E2E2E2E2E2E2E2E2E2E2E2E2E2E2E2E2E2E2E2E2E2E2E2E2E2E2E2E2E2E2E2E2E2E2E2E2E2E2E2E2E2E2E2E2E2E2E2E2E2E2E2E2E2E2E2E2E2E2E2E2E2E2E2E2E2E2E2E2E2E2E2E2E2E2E2E2E2E2E2E2E2E2E2
310
E2E2E2E2E2E2E2E2E2E2E2E2E2F5F5EFF5E2E2E2E2E2E2E2E2E2E2E2E2E2E2E2E2E2E2E2E2E2E2E2E2E2E2E2E2E2E2E2E2E2E2E2E2E2E2E2E2E2E2E2E2E2E2E2E2E2E2E2E2E2E2E2E2E2E2E2E2E2E2E2E2E2E2E2E2E2E2E2E2E2E2E2E2E2E2E2E2E2E2E2E2E2E2E2E2E2E2E2E2E2E2E2E2E2E2E2E2E2E2E2E2E2E2E2E2E2E2
310
E2E2E2E2E2E2E2E2E2E2E2E2E2E2E2E2E2E2E2E2E2E2E2E2E2E2E2E2E2E2E2E2E2E2E2E2E2E2E2E2E2E2E2E2E2E2E2E2E2E2E2E2E2E2E2E2E2E2E2E2E2E2E2E2E2E2F5F5EFF5E2E2E2F5E2E2E2E2E2E2E2E2E2E2E2E2E2E2E2E2E2E2E2E2E2E2E2E2E2E2E2E2E2E2E2E2E2E2E2E2E2E2E2E2E2E2E2E2E2E2E2E2E2E2E2E2E2
310
E2E2E2E2E2E2E2E2E2E2E2E2E2E2E2E2E2E2E2E2E2E2E2E2E2E2E2E2E2E2E2E2E2E2E2E2E2E2E2E2E2E2E2E2E2E2E2E2E2E2E2E2E2E2E2E2E2E2E2E2E2E2E2E2E2E2E2E2E2E2E2E2E2E2E2E2E2E2E2E2E2E2E2E2E2E2E2E2E2E2E2E2E2E2E2E2E2E2E2E2E2E2E2E2E2E2E2E2E2E2E2E2E2E2E2F5E2E2E2F5F5EFF5E2E2E2F5
310
E2E2E2E2E2E2E2E2E2E2E2E2E2E2E2E2E2E2E2E2E2E2E2E2E2E2E2E2E2E2E2E2E2E2E2E2E2E2E2E2E2E2E2E2E2E2E2E2E2E2E2E2E2E2E2E2E2E2E2E2E2E2E2E2E2E2E2E2E2E2E2E2E2E2E2E2E2E2E2E2E2E2E2E2E2E2E2E2E2E2E2E2E2E2E2E2E2E2E2E2E2E2E2E2E2E2E2E2E2E2E2E2E2E2E2E2E2E2E2E2E2E2E2E2E2E2E2
310
E2E2E2E2E2E2E2E2E2E2E2E2E2E2E2E2E2E2E2E2E2E2E2E2E2E2E2E2E2E2E2E2E2E2E2E2E2E2E2E2E2F5E2E2E2F5F5EFF5E2E2E2F5E2E2E2E2E2E2E2E2E2E2E2E2E2E2E2E2E2E2E2E2E2E2E2E2E2E2E2E2E2E2E2E2E2E2E2E2E2E2E2E2E2E2E2E2E2E2E2E2E2E2E2E2E2E2E2E2E2E2E2E2E2E2E2E2E2E2E2E2E2E2E2E2E2E2
310
E2E2E2E2E2E2E2E2E2E2E2E2E2E2E2E2E2E2E2E2E2E2E2E2E2E2E2E2E2E2E2E2E2E2E2E2E2E2E2E2E2E2E2E2E2E2E2E2E2E2E2E2E2E2E2E2E2E2E2E2E2E2E2E2E2E2E2E2E2E2E2E2E2E2E2E2E2E2E2E2E2E2E2E2E2E2E2E2E2E2E2E2E2E2F5E2E2E2F5F5EFF5E2E2E2F5E2E2E2E2E2E2E2E2E2E2E2E2E2E2E2E2E2E2E2E2E2
310
E2E2E2E2E2E2E2E2E2E2E2E2E2E2E2E2E2E2E2E2E2E2E2E2E2E2E2E2E2E2E2E2E2E2E2E2E2E2E2E2E2E2E2E2E2E2E2E2E2E2E2E2E2E2E2E2E2E2E2E2E2E2E2E2E2E2E2E2E2E2E2E2E2E2E2E2E2E2E2E2E2E2E2E2E2E2E2E2E2E2E2E2E2E2E2E2E2E2E2E2E2E2E2E2E2E2E2E2E2E2E2E2E2E2E2E2E2E2E2E2E2E2E2E2E2E2E2
310
E2E2E2E2E2E2E2E2E2E2E2E2E2E2E2E2E2E2E2E2F5E2E2E2F5F5EFF5E2E2E2F5E2E2E2E2E2E2E2E2E2E2E2E2E2E2E2E2E2E2E2E2E2E2E2E2E2E2E2E2E2E2E2E2E2E2E2E2E2E2E2E2E2E2E2E2E2E2E2E2E2E2E2E2E2E2E2E2E2E2E2E2E2E2E2E2E2E2E2E2E2E2E2E2E2E2E2E2E2E2E2E2E2E2E2E2E2E2E2E2E2E2E2E2E2E2E2
310
E2E2E2E2E2E2E2E2E2E2E2E2E2E2E2E2E2E2E2E2E2E2E2E2E2E2E2E2E2E2E2E2E2E2E2E2E2E2E2E2E2E2E2E2E2E2E2E2E2E2E2E2E2E2E2E2E2E2E2E2E2E2E2E2E2E2E2E2E2E2E2E2E2F5E2E2E2F5F5EFF5E2E2E2F5E2E2E2E2E2E2E2E2E2E2E2E2E2E2E2E2E2E2E2E2E2E2E2E2E2E2E2E2E2E2E2E2E2E2E2E2E2E2E2E2E2E2
310
E2E2E2E2E2E2E2E2E2E2E2E2E2E2E2E2E2E2E2E2E2E2E2E2E2E2E2E2E2E2E2E2E2E2E2E2E2E2E2E2E2E2E2E2E2E2E2E2E2E2E2E2E2E2E2E2E2E2E2E2E2E2E2E2E2E2E2E2E2E2E2E2E2E2E2E2E2E2E2E2E2E2E2E2E2E2E2E2E2E2E2E2E2E2E2E2E2E2E2E2E2E2E2E2E2E2E2E2E2E2E2E2E2E2E2E2E2E2E2E2E2E2E2E2E2E2F5
310
E2E2E2F5F5EFF5E2E2E2F5E2E2E2E2E2E2E2E2E2E2E2E2E2E2E2E2E2E2E2E2E2E2E2E2E2E2E2E2E2E2E2E2E2E2E2E2E2E2E2E2E2E2E2E2E2E2E2E2E2E2E2E2E2E2E2E2E2E2E2E2E2E2E2E2E2E2E2E2E2E2E2E2E2E2E2E2E2E2E2E2E2E2E2E2E2E2E2E2E2E2E2E2E2E2E2E2E2E2E2E2E2E2E2E2E2E2E2E2E2E2E2E2E2E2E2E2
310
E2E2E2E2E2E2E2E2E2E2E2E2E2E2E2E2E2E2E2E2E2E2E2E2E2E2E2E2E2E2E2E2E2E2E2E2E2E2E2E2E2E2E2E2E2E2E2E2E2E2E2E2F5E2E2E2F5F5EFF5E2E2E2F5E2E2E2E2E2E2E2E2E2E2E2E2E2E2E2E2E2E2E2E2E2E2E2E2E2E2E2E2E2E2E2E2E2E2E2E2E2E2E2E2E2E2E2E2E2E2E2E2E2E2E2E2E2E2E2E2E2E2E2E2E2E2E2
310
E2E2E2E2E2E2E2E2E2E2E2E2E2E2E2E2E2E2E2E2E2E2E2E2E2E2E2E2E2E2E2E2E2E2E2E2E2E2E2E2E2E2E2E2E2E2E2E2E2E2E2E2E2E2E2E2E2E2E2E2E2E2E2E2E2E2E2E2E2E2E2E2E2E2E2E2E2E2E2E2E2E2E2E2E2E2E2E2E2E2E2E2E2E2E2E2E2E2E2E2E2E2E2E2E2F5E2E2E2F5F5EFF5E2E2E2F5F5F5F5F5F5F5F5E2E2E2
310
E2E2E2E2E2E2F5F5F5F5F5F5F5F5F5F5F5F5F5F5F5E2E2E2E2E2E2E2E2E2F5F5F5F5F5F5F5F5F5F5F5F5F5F5F5F5E2E2E2E2E2E2E2E2F5F5F5F5F5F5F5F5F5F5F5F5F5F5F5F5E2E2E2E2E2E2E2E2F5F5F5F5F5F5F5F5F5F5F5F5F5F5F5F5E2E2E2E2E2E2E2E2F5F5F5F5F5F5F5F5F5F5F5F5F5F5F5F5E2E2E2E2E2E2E2E2E2
310
F5F5F5F5F5F5F5F5F5F5F5F5F5F5F5E2E2E2E2E2E2E2E2E2F5F5F5F5F5F5F5F5E2E2E2F5F5EFF5E2E2E2E2E2E2E2E2E2E2E2E2E2E2E2E2E2E2E2E2E2E2E2E2E2E2E2E2E2E2E2E2E2E2E2E2E2E2E2E2E2E2E2E2E2E2E2E2E2E2E2E2E2E2E2E2E2E2E2E2E2E2E2E2E2E2E2E2E2E2E2E2E2E2E2E2E2E2E2E2E2E2E2E2E2E2E2E2
310
E2E2E2E2E2E2E2E2E2E2E2E2E2E2E2E2E2E2E2E2E2E2E2E2E2E2E2E2E2E2E2E2E2E2E2E2E2E2E2E2E2E2E2E2E2E2E2E2E2E2E2E2E2E2E2E2E2E2E2E2E2E2E2E2E2E2E2E2E2E2E2E2E2E2E2E2E2E2E2E2E2E2E2E2E2E2E2E2F5F5EFF5E2E2E2E2E2E2E2E2E2E2E2E2E2E2E2E2E2E2E2E2E2E2E2E2E2E2E2E2E2E2E2E2E2E2E2
310
E2E2E2E2E2E2E2E2E2E2E2E2E2E2E2E2E2E2E2E2E2E2E2E2E2E2E2E2E2E2E2E2E2E2E2E2E2E2E2E2E2E2E2E2E2E2E2E2E2E2E2E2E2E2E2E2E2E2E2E2E2E2E2E2E2E2E2E2E2E2E2E2E2E2E2E2E2E2E2E2E2E2E2E2E2E2E2E2E2E2E2E2E2E2E2E2E2E2E2E2E2E2E2E2E2E2E2E2E2E2E2E2E2E2E2E2E2E2E2E2E2E2E2E2E2E2E2
310
E2E2E2E2E2E2E2E2E2E2E2E2E2E2F5EFEFF5E2E2E2E2E2E2E2E2E2E2E2E2E2E2E2E2E2E2E2E2E2E2E2E2E2E2E2E2E2E2E2E2E2E2E2E2E2E2E2E2E2E2E2E2E2E2E2E2E2E2E2E2E2E2E2E2E2E2E2E2E2E2E2E2E2E2E2E2E2E2E2E2E2E2E2E2E2E2E2E2E2E2E2E2E2E2E2E2E2E2E2E2E2E2E2E2E2E2E2E2E2E2E2E2E2E2E2E2E2
310
E2E2E2E2E2E2E2E2E2E2E2E2E2E2E2E2E2E2E2E2E2E2E2E2E2E2E2E2E2E2E2E2E2E2E2E2E2E2E2E2E2E2E2E2E2E2E2E2E2E2E2E2E2E2E2E2E2E2E2E2E2E2E2E2E2E2E2F5EFEFF5F5F5F5F5F5F5F5F5F5F5F5F5F5F5F5F5F5F5F5F5F5F5F5F5F5F5F5F5F5F5F5F5F5F5F5F5F5F5F5F5F5F5F5F5F5F5F5F5F5F5F5F5F5F5F5F5
310
F5F5F5F5F5F5F5F5F5F5F5F5F5F5F5F5F5F5F5F5F5F5F5F5F5F5F5F5F5F5F5F5F5F5F5F5F5F5F5F5F5F5F5F5F5F5F5F5F5F5F5F5F5F5F5F5F5F5F5F5F5F5F5F5F5F5F5F5F5F5F5F5F5F5F5F5F5F5F5F5F5F5F5F5F5F5F5F5F5F5F5F5F5F5F5F5F5F5F5F5F5F5F5F5F5F5F5F5F5F5F5F5F5F5F5F5F5F5F5F5F5EFEF
  0
XRECORD
  5
301
102
{ACAD_REACTORS
330
300
102
}
330
300
100
AcDbXrecord
280
     1
102
SHADEPLOT
 70
     1
102
SHADEPLOTRESLEVEL
 70
     2
102
SHADEPLOTCUSTOMDPI
 70
   300
  0
XRECORD
  5
30A
102
{ACAD_REACTORS
330
309
102
}
330
309
100
AcDbXrecord
280
     1
102
MATERIAL
148
0.0
149
0.0
149
0.0
 93
        0
 94
       63
282
     0
 72
     1
 77
     1
171
     1
175
     1
179
     1
273
     0
  0
XRECORD
  5
308
102
{ACAD_REACTORS
330
307
102
}
330
307
100
AcDbXrecord
280
     1
102
MATERIAL
148
0.0
149
0.0
149
0.0
 93
        0
 94
       63
282
     0
 72
     1
 77
     1
171
     1
175
     1
179
     1
273
     0
  0
XRECORD
  5
2FB
102
{ACAD_REACTORS
330
2FA
102
}
330
2FA
100
AcDbXrecord
280
     1
102
MATERIAL
148
0.0
149
0.0
149
0.0
 93
        0
 94
       63
282
     0
 72
     1
 77
     1
171
     1
175
     1
179
     1
273
     0
  0
CELLSTYLEMAP
  5
2F7
102
{ACAD_REACTORS
330
262
102
}
330
262
100
AcDbCellStyleMap
 90
        3
300
CELLSTYLE
  1
TABLEFORMAT_BEGIN
 90
        5
170
     1
 91
        0
 92
    32768
 62
   257
 93
        1
300
CONTENTFORMAT
  1
CONTENTFORMAT_BEGIN
 90
        0
 91
        0
 92
        4
 93
        0
300

 40
0.0
140
1.0
 94
        5
 62
     0
340
23F
144
0.25
309
CONTENTFORMAT_END
171
     0
 94
        6
 95
        1
302
GRIDFORMAT
  1
GRIDFORMAT_BEGIN
 90
        0
 91
        1
 62
     0
 92
       -2
340
0
 93
        0
 40
0.045
309
GRIDFORMAT_END
 95
        2
302
GRIDFORMAT
  1
GRIDFORMAT_BEGIN
 90
        0
 91
        1
 62
     0
 92
       -2
340
0
 93
        0
 40
0.045
309
GRIDFORMAT_END
 95
        4
302
GRIDFORMAT
  1
GRIDFORMAT_BEGIN
 90
        0
 91
        1
 62
     0
 92
       -2
340
0
 93
        0
 40
0.045
309
GRIDFORMAT_END
 95
        8
302
GRIDFORMAT
  1
GRIDFORMAT_BEGIN
 90
        0
 91
        1
 62
     0
 92
       -2
340
0
 93
        0
 40
0.045
309
GRIDFORMAT_END
 95
       16
302
GRIDFORMAT
  1
GRIDFORMAT_BEGIN
 90
        0
 91
        1
 62
     0
 92
       -2
340
0
 93
        0
 40
0.045
309
GRIDFORMAT_END
 95
       32
302
GRIDFORMAT
  1
GRIDFORMAT_BEGIN
 90
        0
 91
        1
 62
     0
 92
       -2
340
0
 93
        0
 40
0.045
309
GRIDFORMAT_END
309
TABLEFORMAT_END
  1
CELLSTYLE_BEGIN
 90
        1
 91
        1
300
_TITLE
309
CELLSTYLE_END
300
CELLSTYLE
  1
TABLEFORMAT_BEGIN
 90
        5
170
     1
 91
        0
 92
        0
 62
   257
 93
        1
300
CONTENTFORMAT
  1
CONTENTFORMAT_BEGIN
 90
        0
 91
        0
 92
        4
 93
        0
300

 40
0.0
140
1.0
 94
        5
 62
     0
340
23F
144
0.18
309
CONTENTFORMAT_END
171
     0
 94
        6
 95
        1
302
GRIDFORMAT
  1
GRIDFORMAT_BEGIN
 90
        0
 91
        1
 62
     0
 92
       -2
340
0
 93
        0
 40
0.045
309
GRIDFORMAT_END
 95
        2
302
GRIDFORMAT
  1
GRIDFORMAT_BEGIN
 90
        0
 91
        1
 62
     0
 92
       -2
340
0
 93
        0
 40
0.045
309
GRIDFORMAT_END
 95
        4
302
GRIDFORMAT
  1
GRIDFORMAT_BEGIN
 90
        0
 91
        1
 62
     0
 92
       -2
340
0
 93
        0
 40
0.045
309
GRIDFORMAT_END
 95
        8
302
GRIDFORMAT
  1
GRIDFORMAT_BEGIN
 90
        0
 91
        1
 62
     0
 92
       -2
340
0
 93
        0
 40
0.045
309
GRIDFORMAT_END
 95
       16
302
GRIDFORMAT
  1
GRIDFORMAT_BEGIN
 90
        0
 91
        1
 62
     0
 92
       -2
340
0
 93
        0
 40
0.045
309
GRIDFORMAT_END
 95
       32
302
GRIDFORMAT
  1
GRIDFORMAT_BEGIN
 90
        0
 91
        1
 62
     0
 92
       -2
340
0
 93
        0
 40
0.045
309
GRIDFORMAT_END
309
TABLEFORMAT_END
  1
CELLSTYLE_BEGIN
 90
        2
 91
        1
300
_HEADER
309
CELLSTYLE_END
300
CELLSTYLE
  1
TABLEFORMAT_BEGIN
 90
        5
170
     1
 91
        0
 92
        0
 62
   257
 93
        1
300
CONTENTFORMAT
  1
CONTENTFORMAT_BEGIN
 90
        0
 91
        0
 92
        4
 93
        0
300

 40
0.0
140
1.0
 94
        2
 62
     0
340
23F
144
0.18
309
CONTENTFORMAT_END
171
     0
 94
        6
 95
        1
302
GRIDFORMAT
  1
GRIDFORMAT_BEGIN
 90
        0
 91
        1
 62
     0
 92
       -2
340
0
 93
        0
 40
0.045
309
GRIDFORMAT_END
 95
        2
302
GRIDFORMAT
  1
GRIDFORMAT_BEGIN
 90
        0
 91
        1
 62
     0
 92
       -2
340
0
 93
        0
 40
0.045
309
GRIDFORMAT_END
 95
        4
302
GRIDFORMAT
  1
GRIDFORMAT_BEGIN
 90
        0
 91
        1
 62
     0
 92
       -2
340
0
 93
        0
 40
0.045
309
GRIDFORMAT_END
 95
        8
302
GRIDFORMAT
  1
GRIDFORMAT_BEGIN
 90
        0
 91
        1
 62
     0
 92
       -2
340
0
 93
        0
 40
0.045
309
GRIDFORMAT_END
 95
       16
302
GRIDFORMAT
  1
GRIDFORMAT_BEGIN
 90
        0
 91
        1
 62
     0
 92
       -2
340
0
 93
        0
 40
0.045
309
GRIDFORMAT_END
 95
       32
302
GRIDFORMAT
  1
GRIDFORMAT_BEGIN
 90
        0
 91
        1
 62
     0
 92
       -2
340
0
 93
        0
 40
0.045
309
GRIDFORMAT_END
309
TABLEFORMAT_END
  1
CELLSTYLE_BEGIN
 90
        3
 91
        2
300
_DATA
309
CELLSTYLE_END
  0
XRECORD
  5
30B
102
{ACAD_REACTORS
330
262
102
}
330
262
100
AcDbXrecord
280
     1
102
ACAD_ROUNDTRIP_PRE2007_TABLESTYLE
 90
        4
 91
        0
  1

 92
        4
 93
        0
  2

 94
        4
 95
        0
  3

  0
ENDSEC
  0
EOF
