  0
SECTION
  2
HEADER
  9
$ACADVER
  1
AC1015
  9
$ACADMAINTVER
 70
    20
  9
$DWGCODEPAGE
  3
ANSI_1250
  9
$INSBASE
 10
215187.233673673
 20
127657.5168525552
 30
0.0
  9
$EXTMIN
 10
215187.2000545948
 20
127657.5157057546
 30
0.0
  9
$EXTMAX
 10
243870.3815827178
 20
141677.5157057546
 30
0.0338724533932616
  9
$LIMMIN
 10
0.0
 20
0.0
  9
$LIMMAX
 10
420.0
 20
297.0
  9
$ORTHOMODE
 70
     0
  9
$REGENMODE
 70
     1
  9
$FILLMODE
 70
     1
  9
$QTEXTMODE
 70
     0
  9
$MIRRTEXT
 70
     0
  9
$LTSCALE
 40
75.0
  9
$ATTMODE
 70
     1
  9
$TEXTSIZE
 40
20.0
  9
$TRACEWID
 40
1.0
  9
$TEXTSTYLE
  7
ROMANS
  9
$CLAYER
  8
0Wymiary-PL
  9
$CELTYPE
  6
ByLayer
  9
$CECOLOR
 62
   256
  9
$CELTSCALE
 40
1.0
  9
$DISPSILH
 70
     0
  9
$DIMSCALE
 40
1.0
  9
$DIMASZ
 40
30.0
  9
$DIMEXO
 40
43.0
  9
$DIMDLI
 40
0.0
  9
$DIMRND
 40
0.5
  9
$DIMDLE
 40
12.0
  9
$DIMEXE
 40
13.0
  9
$DIMTP
 40
0.0
  9
$DIMTM
 40
0.0
  9
$DIMTXT
 40
80.0
  9
$DIMCEN
 40
0.0
  9
$DIMTSZ
 40
0.0
  9
$DIMTOL
 70
     0
  9
$DIMLIM
 70
     0
  9
$DIMTIH
 70
     0
  9
$DIMTOH
 70
     0
  9
$DIMSE1
 70
     1
  9
$DIMSE2
 70
     1
  9
$DIMTAD
 70
     0
  9
$DIMZIN
 70
    12
  9
$DIMBLK
  1
B-DIM
  9
$DIMASO
 70
     1
  9
$DIMSHO
 70
     1
  9
$DIMPOST
  1

  9
$DIMAPOST
  1

  9
$DIMALT
 70
     0
  9
$DIMALTD
 70
     2
  9
$DIMALTF
 40
25.4
  9
$DIMLFAC
 40
1.0
  9
$DIMTOFL
 70
     1
  9
$DIMTVP
 40
1.0
  9
$DIMTIX
 70
     1
  9
$DIMSOXD
 70
     0
  9
$DIMSAH
 70
     0
  9
$DIMBLK1
  1

  9
$DIMBLK2
  1

  9
$DIMSTYLE
  2
500
  9
$DIMCLRD
 70
     1
  9
$DIMCLRE
 70
     1
  9
$DIMCLRT
 70
    10
  9
$DIMTFAC
 40
1.0
  9
$DIMGAP
 40
0.0
  9
$DIMJUST
 70
     0
  9
$DIMSD1
 70
     0
  9
$DIMSD2
 70
     0
  9
$DIMTOLJ
 70
     1
  9
$DIMTZIN
 70
     0
  9
$DIMALTZ
 70
     0
  9
$DIMALTTZ
 70
     0
  9
$DIMUPT
 70
     0
  9
$DIMDEC
 70
     1
  9
$DIMTDEC
 70
     1
  9
$DIMALTU
 70
     2
  9
$DIMALTTD
 70
     2
  9
$DIMTXSTY
  7
ROMANS
  9
$DIMAUNIT
 70
     0
  9
$DIMADEC
 70
     0
  9
$DIMALTRND
 40
0.0
  9
$DIMAZIN
 70
     0
  9
$DIMDSEP
 70
    46
  9
$DIMATFIT
 70
     3
  9
$DIMFRAC
 70
     0
  9
$DIMLDRBLK
  1
B-DIM
  9
$DIMLUNIT
 70
     2
  9
$DIMLWD
 70
    -2
  9
$DIMLWE
 70
    -2
  9
$DIMTMOVE
 70
     2
  9
$LUNITS
 70
     2
  9
$LUPREC
 70
     1
  9
$SKETCHINC
 40
1.0
  9
$FILLETRAD
 40
0.0
  9
$AUNITS
 70
     0
  9
$AUPREC
 70
     0
  9
$MENU
  1
.
  9
$ELEVATION
 40
0.0
  9
$PELEVATION
 40
0.0
  9
$THICKNESS
 40
0.0
  9
$LIMCHECK
 70
     0
  9
$CHAMFERA
 40
0.0
  9
$CHAMFERB
 40
0.0
  9
$CHAMFERC
 40
20.0
  9
$CHAMFERD
 40
0.0
  9
$SKPOLY
 70
     0
  9
$TDCREATE
 40
2452027.670547454
  9
$TDUCREATE
 40
2452027.587214120
  9
$TDUPDATE
 40
2454573.443248692
  9
$TDUUPDATE
 40
2454573.359915359
  9
$TDINDWG
 40
8.2308163079
  9
$TDUSRTIMER
 40
8.2308163079
  9
$USRTIMER
 70
     1
  9
$ANGBASE
 50
0.0
  9
$ANGDIR
 70
     0
  9
$PDMODE
 70
     0
  9
$PDSIZE
 40
0.0
  9
$PLINEWID
 40
0.0
  9
$SPLFRAME
 70
     0
  9
$SPLINETYPE
 70
     6
  9
$SPLINESEGS
 70
     8
  9
$HANDSEED
  5
FA8E
  9
$SURFTAB1
 70
     6
  9
$SURFTAB2
 70
     6
  9
$SURFTYPE
 70
     6
  9
$SURFU
 70
     6
  9
$SURFV
 70
     6
  9
$UCSBASE
  2

  9
$UCSNAME
  2

  9
$UCSORG
 10
0.0
 20
0.0
 30
0.0
  9
$UCSXDIR
 10
1.0
 20
0.0
 30
0.0
  9
$UCSYDIR
 10
0.0
 20
1.0
 30
0.0
  9
$UCSORTHOREF
  2

  9
$UCSORTHOVIEW
 70
     0
  9
$UCSORGTOP
 10
0.0
 20
0.0
 30
0.0
  9
$UCSORGBOTTOM
 10
0.0
 20
0.0
 30
0.0
  9
$UCSORGLEFT
 10
0.0
 20
0.0
 30
0.0
  9
$UCSORGRIGHT
 10
0.0
 20
0.0
 30
0.0
  9
$UCSORGFRONT
 10
0.0
 20
0.0
 30
0.0
  9
$UCSORGBACK
 10
0.0
 20
0.0
 30
0.0
  9
$PUCSBASE
  2

  9
$PUCSNAME
  2

  9
$PUCSORG
 10
0.0
 20
0.0
 30
0.0
  9
$PUCSXDIR
 10
1.0
 20
0.0
 30
0.0
  9
$PUCSYDIR
 10
0.0
 20
1.0
 30
0.0
  9
$PUCSORTHOREF
  2

  9
$PUCSORTHOVIEW
 70
     0
  9
$PUCSORGTOP
 10
0.0
 20
0.0
 30
0.0
  9
$PUCSORGBOTTOM
 10
0.0
 20
0.0
 30
0.0
  9
$PUCSORGLEFT
 10
0.0
 20
0.0
 30
0.0
  9
$PUCSORGRIGHT
 10
0.0
 20
0.0
 30
0.0
  9
$PUCSORGFRONT
 10
0.0
 20
0.0
 30
0.0
  9
$PUCSORGBACK
 10
0.0
 20
0.0
 30
0.0
  9
$USERI1
 70
     0
  9
$USERI2
 70
     0
  9
$USERI3
 70
     0
  9
$USERI4
 70
     0
  9
$USERI5
 70
     0
  9
$USERR1
 40
0.0
  9
$USERR2
 40
0.0
  9
$USERR3
 40
0.0
  9
$USERR4
 40
0.0
  9
$USERR5
 40
0.0
  9
$WORLDVIEW
 70
     1
  9
$SHADEDGE
 70
     3
  9
$SHADEDIF
 70
    70
  9
$TILEMODE
 70
     1
  9
$MAXACTVP
 70
    64
  9
$PINSBASE
 10
0.0
 20
0.0
 30
0.0
  9
$PLIMCHECK
 70
     0
  9
$PEXTMIN
 10
1.000000000000000E+20
 20
1.000000000000000E+20
 30
1.000000000000000E+20
  9
$PEXTMAX
 10
-1.000000000000000E+20
 20
-1.000000000000000E+20
 30
-1.000000000000000E+20
  9
$PLIMMIN
 10
0.0
 20
0.0
  9
$PLIMMAX
 10
420.0
 20
297.0
  9
$UNITMODE
 70
     0
  9
$VISRETAIN
 70
     1
  9
$PLINEGEN
 70
     0
  9
$PSLTSCALE
 70
     1
  9
$TREEDEPTH
 70
  3020
  9
$CMLSTYLE
  2
Standard
  9
$CMLJUST
 70
     0
  9
$CMLSCALE
 40
20.0
  9
$PROXYGRAPHICS
 70
     1
  9
$MEASUREMENT
 70
     0
  9
$CELWEIGHT
370
    -1
  9
$ENDCAPS
280
     0
  9
$JOINSTYLE
280
     0
  9
$LWDISPLAY
290
     1
  9
$INSUNITS
 70
     1
  9
$HYPERLINKBASE
  1

  9
$STYLESHEET
  1
monochrome_140.ctb
  9
$XEDIT
290
     1
  9
$CEPSNTYPE
380
     0
  9
$PSTYLEMODE
290
     1
  9
$FINGERPRINTGUID
  2
{938A2469-3AF5-11D5-BC95-0050BABCE9EC}
  9
$VERSIONGUID
  2
{9108BC6E-E99F-4888-B62D-017EF5E77E66}
  9
$EXTNAMES
290
     1
  9
$PSVPSCALE
 40
0.0
  9
$OLESTARTUP
290
     0
  0
ENDSEC
  0
SECTION
  2
CLASSES
  0
CLASS
  1
ACDBDICTIONARYWDFLT
  2
AcDbDictionaryWithDefault
  3
ObjectDBX Classes
 90
        0
280
     0
281
     0
  0
CLASS
  1
ACDBPLACEHOLDER
  2
AcDbPlaceHolder
  3
ObjectDBX Classes
 90
        0
280
     0
281
     0
  0
CLASS
  1
LAYOUT
  2
AcDbLayout
  3
ObjectDBX Classes
 90
        0
280
     0
281
     0
  0
CLASS
  1
DICTIONARYVAR
  2
AcDbDictionaryVar
  3
ObjectDBX Classes
 90
        0
280
     0
281
     0
  0
CLASS
  1
SORTENTSTABLE
  2
AcDbSortentsTable
  3
ObjectDBX Classes
 90
        0
280
     0
281
     0
  0
CLASS
  1
AEC_VARS_DWG_SETUP
  2
AecDbVarsDwgSetup
  3
AecBase50|Product Desc: Autodesk Architectural Desktop 2007 |Company: Autodesk,Inc. |WEB Address: www.autodesk.com
 90
      129
280
     0
281
     0
  0
CLASS
  1
AEC_DISP_REP_CONFIG
  2
AecDbDispRepConfig
  3
AecBase50|Product Desc: Autodesk Architectural Desktop 2007 |Company: Autodesk,Inc. |WEB Address: www.autodesk.com
 90
      129
280
     0
281
     0
  0
CLASS
  1
AEC_DISP_REP_SET
  2
AecDbDispRepSet
  3
AecBase50|Product Desc: Autodesk Architectural Desktop 2007 |Company: Autodesk,Inc. |WEB Address: www.autodesk.com
 90
      129
280
     0
281
     0
  0
CLASS
  1
AEC_DISP_REP_2D_SECTION
  2
AecDbDispRep2dSection
  3
AecBase50|Product Desc: Autodesk Architectural Desktop 2007 |Company: Autodesk,Inc. |WEB Address: www.autodesk.com
 90
      129
280
     0
281
     0
  0
CLASS
  1
AEC_DISP_REP_ANCHOR_BUB_TO_GRID
  2
AecDbDispRepAnchorBubToGrid
  3
AecStructureBase50|Product Desc: Autodesk Architectural Desktop 2007 |Company: Autodesk,Inc. |WEB Address: www.autodesk.com
 90
      129
280
     0
281
     0
  0
CLASS
  1
AEC_DISP_REP_ANCHOR_BUB_TO_GRID_MODEL
  2
AecDbDispRepAnchorBubToGridMdl
  3
AecStructureBase50|Product Desc: Autodesk Architectural Desktop 2007 |Company: Autodesk,Inc. |WEB Address: www.autodesk.com
 90
      129
280
     0
281
     0
  0
CLASS
  1
AEC_DISP_REP_ANCHOR_ENT_TO_NODE
  2
AecDbDispRepAnchorEntToNode
  3
AecBase50|Product Desc: Autodesk Architectural Desktop 2007 |Company: Autodesk,Inc. |WEB Address: www.autodesk.com
 90
      129
280
     0
281
     0
  0
CLASS
  1
AEC_DISP_REP_ANCHOR_TAG_TO_ENT
  2
AecDbDispRepAnchorTagToEnt
  3
AecScheduleData50|Product Desc: Autodesk Architectural Desktop 2007 |Company: Autodesk,Inc. |WEB Address: www.autodesk.com
 90
      129
280
     0
281
     0
  0
CLASS
  1
AEC_DISP_REP_AREA
  2
AecDbDispRepArea
  3
AecAreaCalculationBase50|Product Desc: Autodesk Architectural Desktop 2007 |Company: Autodesk,Inc. |WEB Address: www.autodesk.com
 90
    32897
280
     0
281
     0
  0
CLASS
  1
AEC_DISP_REP_AREA_DECOMPOSED
  2
AecDbDispRepAreaDecomposed
  3
AecAreaCalculationBase50|Product Desc: Autodesk Architectural Desktop 2007 |Company: Autodesk,Inc. |WEB Address: www.autodesk.com
 90
    32897
280
     0
281
     0
  0
CLASS
  1
AEC_DISP_REP_AREAGROUP
  2
AecDbDispRepAreaGroup
  3
AecAreaCalculationBase50|Product Desc: Autodesk Architectural Desktop 2007 |Company: Autodesk,Inc. |WEB Address: www.autodesk.com
 90
    32897
280
     0
281
     0
  0
CLASS
  1
AEC_DISP_REP_BDG_ELEVLINE_MODEL
  2
AecDbDispRepBdgElevLineModel
  3
AecArchBase50|Product Desc: Autodesk Architectural Desktop 2007 |Company: Autodesk,Inc. |WEB Address: www.autodesk.com
 90
      129
280
     0
281
     0
  0
CLASS
  1
AEC_DISP_REP_BDG_SECTIONLINE_PLAN
  2
AecDbDispRepBdgElevLinePlan
  3
AecArchBase50|Product Desc: Autodesk Architectural Desktop 2007 |Company: Autodesk,Inc. |WEB Address: www.autodesk.com
 90
      129
280
     0
281
     0
  0
CLASS
  1
AEC_DISP_REP_BDG_SECTIONLINE_MODEL
  2
AecDbDispRepBdgSectionLineModel
  3
AecArchBase50|Product Desc: Autodesk Architectural Desktop 2007 |Company: Autodesk,Inc. |WEB Address: www.autodesk.com
 90
      129
280
     0
281
     0
  0
CLASS
  1
AEC_DISP_REP_BDG_SECTIONLINE_PLAN
  2
AecDbDispRepBdgSectionLinePlan
  3
AecArchBase50|Product Desc: Autodesk Architectural Desktop 2007 |Company: Autodesk,Inc. |WEB Address: www.autodesk.com
 90
      129
280
     0
281
     0
  0
CLASS
  1
AEC_DISP_REP_BDG_SECTION_SUBDIV
  2
AecDbDispRepBdgSectionSubDiv
  3
AecArchBase50|Product Desc: Autodesk Architectural Desktop 2007 |Company: Autodesk,Inc. |WEB Address: www.autodesk.com
 90
      129
280
     0
281
     0
  0
CLASS
  1
AEC_DISP_REP_CAMERA
  2
AecDbDispRepCamera
  3
AecBase50|Product Desc: Autodesk Architectural Desktop 2007 |Company: Autodesk,Inc. |WEB Address: www.autodesk.com
 90
    32897
280
     0
281
     0
  0
CLASS
  1
AEC_DISP_REP_CEILING_GRID
  2
AecDbDispRepCeilingGrid
  3
AecArchBase50|Product Desc: Autodesk Architectural Desktop 2007 |Company: Autodesk,Inc. |WEB Address: www.autodesk.com
 90
      893
280
     0
281
     0
  0
CLASS
  1
AEC_DISP_REP_CEILING_GRID_MODEL
  2
AecDbDispRepCeilingGridModel
  3
AecArchBase50|Product Desc: Autodesk Architectural Desktop 2007 |Company: Autodesk,Inc. |WEB Address: www.autodesk.com
 90
      129
280
     0
281
     0
  0
CLASS
  1
AEC_DISP_REP_CEILING_GRID_RCP
  2
AecDbDispRepCeilingGridRcp
  3
AecArchBase50|Product Desc: Autodesk Architectural Desktop 2007 |Company: Autodesk,Inc. |WEB Address: www.autodesk.com
 90
      129
280
     0
281
     0
  0
CLASS
  1
AEC_DISP_REP_CLIP_VOLUME_MODEL
  2
AecDbDispRepClipVolModel
  3
AecBase50|Product Desc: Autodesk Architectural Desktop 2007 |Company: Autodesk,Inc. |WEB Address: www.autodesk.com
 90
      129
280
     0
281
     0
  0
CLASS
  1
AEC_DISP_REP_CLIP_VOLUME_PLAN
  2
AecDbDispRepClipVolPlan
  3
AecBase50|Product Desc: Autodesk Architectural Desktop 2007 |Company: Autodesk,Inc. |WEB Address: www.autodesk.com
 90
      129
280
     0
281
     0
  0
CLASS
  1
AEC_DISP_REP_CLIP_VOLUME_RESULT_SUBDIV
  2
AecDbDispRepClipVolResSubDiv
  3
AecBase50|Product Desc: Autodesk Architectural Desktop 2007 |Company: Autodesk,Inc. |WEB Address: www.autodesk.com
 90
      129
280
     0
281
     0
  0
CLASS
  1
AEC_DISP_REP_CLIP_VOLUME_RESULT
  2
AecDbDispRepClipVolResult
  3
AecBase50|Product Desc: Autodesk Architectural Desktop 2007 |Company: Autodesk,Inc. |WEB Address: www.autodesk.com
 90
      129
280
     0
281
     0
  0
CLASS
  1
AEC_DISP_REP_COLUMN_GRID
  2
AecDbDispRepColumnGrid
  3
AecStructureBase50|Product Desc: Autodesk Architectural Desktop 2007 |Company: Autodesk,Inc. |WEB Address: www.autodesk.com
 90
      129
280
     0
281
     0
  0
CLASS
  1
AEC_DISP_REP_COLUMN_GRID_MODEL
  2
AecDbDispRepColumnGridModel
  3
AecStructureBase50|Product Desc: Autodesk Architectural Desktop 2007 |Company: Autodesk,Inc. |WEB Address: www.autodesk.com
 90
      129
280
     0
281
     0
  0
CLASS
  1
AEC_DISP_REP_CURTAIN_WALL_LAYOUT_MODEL
  2
AecDbDispRepCurtainWallLayoutModel
  3
AecArchBase50|Product Desc: Autodesk Architectural Desktop 2007 |Company: Autodesk,Inc. |WEB Address: www.autodesk.com
 90
      129
280
     0
281
     0
  0
CLASS
  1
AEC_DISP_REP_CURTAIN_WALL_LAYOUT_PLAN
  2
AecDbDispRepCurtainWallLayoutPlan
  3
AecArchBase50|Product Desc: Autodesk Architectural Desktop 2007 |Company: Autodesk,Inc. |WEB Address: www.autodesk.com
 90
      129
280
     0
281
     0
  0
CLASS
  1
AEC_DISP_REP_CURTAIN_WALL_UNIT_MODEL
  2
AecDbDispRepCurtainWallUnitModel
  3
AecArchBase50|Product Desc: Autodesk Architectural Desktop 2007 |Company: Autodesk,Inc. |WEB Address: www.autodesk.com
 90
      129
280
     0
281
     0
  0
CLASS
  1
AEC_DISP_REP_CURTAIN_WALL_UNIT_PLAN
  2
AecDbDispRepCurtainWallUnitPlan
  3
AecArchBase50|Product Desc: Autodesk Architectural Desktop 2007 |Company: Autodesk,Inc. |WEB Address: www.autodesk.com
 90
      129
280
     0
281
     0
  0
CLASS
  1
AEC_DB_DISP_REP_DIM_GROUP_PLAN
  2
AecDbDispRepDimGroupPlan
  3
AecArchDACHBase50|Product Desc: Autodesk Architectural Desktop 2007 |Company: Autodesk,Inc. |WEB Address: www.autodesk.com
 90
      129
280
     0
281
     0
  0
CLASS
  1
AEC_DISP_REP_DOOR_MODEL
  2
AecDbDispRepDoorModel
  3
AecArchBase50|Product Desc: Autodesk Architectural Desktop 2007 |Company: Autodesk,Inc. |WEB Address: www.autodesk.com
 90
      129
280
     0
281
     0
  0
CLASS
  1
AEC_DISP_REP_DOOR_NOMINAL
  2
AecDbDispRepDoorNominal
  3
AecArchBase50|Product Desc: Autodesk Architectural Desktop 2007 |Company: Autodesk,Inc. |WEB Address: www.autodesk.com
 90
      129
280
     0
281
     0
  0
CLASS
  1
AEC_DISP_REP_DOOR_PLAN
  2
AecDbDispRepDoorPlan
  3
AecArchBase50|Product Desc: Autodesk Architectural Desktop 2007 |Company: Autodesk,Inc. |WEB Address: www.autodesk.com
 90
      129
280
     0
281
     0
  0
CLASS
  1
AEC_DISP_REP_EDITINPLACEPROFILE
  2
AecDbDispRepEditInPlaceProfile
  3
AecBase50|Product Desc: Autodesk Architectural Desktop 2007 |Company: Autodesk,Inc. |WEB Address: www.autodesk.com
 90
      129
280
     0
281
     0
  0
CLASS
  1
AEC_DISP_REP_ENT_REF
  2
AecDbDispRepEntRef
  3
AecBase50|Product Desc: Autodesk Architectural Desktop 2007 |Company: Autodesk,Inc. |WEB Address: www.autodesk.com
 90
      129
280
     0
281
     0
  0
CLASS
  1
AEC_DISP_REP_LAYOUT_CURVE
  2
AecDbDispRepLayoutCurve
  3
AecBase50|Product Desc: Autodesk Architectural Desktop 2007 |Company: Autodesk,Inc. |WEB Address: www.autodesk.com
 90
      129
280
     0
281
     0
  0
CLASS
  1
AEC_DISP_REP_LAYOUT_GRID2D
  2
AecDbDispRepLayoutGrid2d
  3
AecBase50|Product Desc: Autodesk Architectural Desktop 2007 |Company: Autodesk,Inc. |WEB Address: www.autodesk.com
 90
      129
280
     0
281
     0
  0
CLASS
  1
AEC_DISP_REP_LAYOUT_GRID3D
  2
AecDbDispRepLayoutGrid3d
  3
AecBase50|Product Desc: Autodesk Architectural Desktop 2007 |Company: Autodesk,Inc. |WEB Address: www.autodesk.com
 90
      129
280
     0
281
     0
  0
CLASS
  1
AEC_DISP_REP_MASKBLOCK_REF
  2
AecDbDispRepMaskBlockRef
  3
AecBase50|Product Desc: Autodesk Architectural Desktop 2007 |Company: Autodesk,Inc. |WEB Address: www.autodesk.com
 90
      129
280
     0
281
     0
  0
CLASS
  1
AEC_DISP_REP_MASKBLOCK_REF_RCP
  2
AecDbDispRepMaskBlockRefRcp
  3
AecArchBase50|Product Desc: Autodesk Architectural Desktop 2007 |Company: Autodesk,Inc. |WEB Address: www.autodesk.com
 90
      129
280
     0
281
     0
  0
CLASS
  1
AEC_DISP_REP_MASS_ELEM_MODEL
  2
AecDbDispRepMassElemModel
  3
AecBaseEx50|Product Desc: Autodesk Architectural Desktop 2007 |Company: Autodesk,Inc. |WEB Address: www.autodesk.com
 90
      129
280
     0
281
     0
  0
CLASS
  1
AEC_DISP_REP_MASS_ELEM_SCHEM
  2
AecDbDispRepMassElemSchem
  3
AecBaseEx50|Product Desc: Autodesk Architectural Desktop 2007 |Company: Autodesk,Inc. |WEB Address: www.autodesk.com
 90
      129
280
     0
281
     0
  0
CLASS
  1
AEC_DISP_REP_MASS_GROUP_MODEL
  2
AecDbDispRepMassGroupModel
  3
AecBaseEx50|Product Desc: Autodesk Architectural Desktop 2007 |Company: Autodesk,Inc. |WEB Address: www.autodesk.com
 90
      129
280
     0
281
     0
  0
CLASS
  1
AEC_DISP_REP_MASS_GROUP_PLAN
  2
AecDbDispRepMassGroupPlan
  3
AecBaseEx50|Product Desc: Autodesk Architectural Desktop 2007 |Company: Autodesk,Inc. |WEB Address: www.autodesk.com
 90
      129
280
     0
281
     0
  0
CLASS
  1
AEC_DISP_REP_MATERIAL
  2
AecDbDispRepMaterial
  3
AecBase50|Product Desc: Autodesk Architectural Desktop 2007 |Company: Autodesk,Inc. |WEB Address: www.autodesk.com
 90
      129
280
     0
281
     0
  0
CLASS
  1
AEC_DISP_REP_MVBLOCK_REF
  2
AecDbDispRepMvBlockRef
  3
AecBase50|Product Desc: Autodesk Architectural Desktop 2007 |Company: Autodesk,Inc. |WEB Address: www.autodesk.com
 90
      129
280
     0
281
     0
  0
CLASS
  1
AEC_DISP_REP_MVBLOCK_REF_MODEL
  2
AecDbDispRepMvBlockRefModel
  3
AecBase50|Product Desc: Autodesk Architectural Desktop 2007 |Company: Autodesk,Inc. |WEB Address: www.autodesk.com
 90
      129
280
     0
281
     0
  0
CLASS
  1
AEC_DISP_REP_OPENING
  2
AecDbDispRepOpening
  3
AecArchBase50|Product Desc: Autodesk Architectural Desktop 2007 |Company: Autodesk,Inc. |WEB Address: www.autodesk.com
 90
      129
280
     0
281
     0
  0
CLASS
  1
AEC_DISP_REP_OPENING_MODEL
  2
AecDbDispRepOpeningModel
  3
AecArchBase50|Product Desc: Autodesk Architectural Desktop 2007 |Company: Autodesk,Inc. |WEB Address: www.autodesk.com
 90
      129
280
     0
281
     0
  0
CLASS
  1
AEC_DISP_REP_POLYGON_MODEL
  2
AecDbDispRepPolygonModel
  3
AecBase50|Product Desc: Autodesk Architectural Desktop 2007 |Company: Autodesk,Inc. |WEB Address: www.autodesk.com
 90
      129
280
     0
281
     0
  0
CLASS
  1
AEC_DISP_REP_RAILING_MODEL
  2
AecDbDispRepRailingModel
  3
AecArchBase50|Product Desc: Autodesk Architectural Desktop 2007 |Company: Autodesk,Inc. |WEB Address: www.autodesk.com
 90
      129
280
     0
281
     0
  0
CLASS
  1
AEC_DISP_REP_RAILING_PLAN
  2
AecDbDispRepRailingPlan
  3
AecArchBase50|Product Desc: Autodesk Architectural Desktop 2007 |Company: Autodesk,Inc. |WEB Address: www.autodesk.com
 90
      129
280
     0
281
     0
  0
CLASS
  1
AEC_DISP_REP_ROOF_MODEL
  2
AecDbDispRepRoofModel
  3
AecArchBase50|Product Desc: Autodesk Architectural Desktop 2007 |Company: Autodesk,Inc. |WEB Address: www.autodesk.com
 90
      129
280
     0
281
     0
  0
CLASS
  1
AEC_DISP_REP_ROOF_PLAN
  2
AecDbDispRepRoofPlan
  3
AecArchBase50|Product Desc: Autodesk Architectural Desktop 2007 |Company: Autodesk,Inc. |WEB Address: www.autodesk.com
 90
      129
280
     0
281
     0
  0
CLASS
  1
AEC_DISP_REP_ROOFSLAB_MODEL
  2
AecDbDispRepRoofSlabModel
  3
AecArchBase50|Product Desc: Autodesk Architectural Desktop 2007 |Company: Autodesk,Inc. |WEB Address: www.autodesk.com
 90
      129
280
     0
281
     0
  0
CLASS
  1
AEC_DISP_REP_ROOFSLAB_PLAN
  2
AecDbDispRepRoofSlabPlan
  3
AecArchBase50|Product Desc: Autodesk Architectural Desktop 2007 |Company: Autodesk,Inc. |WEB Address: www.autodesk.com
 90
      129
280
     0
281
     0
  0
CLASS
  1
AEC_DISP_REP_SCHEDULE_TABLE
  2
AecDbDispRepScheduleTable
  3
AecSchedule50|Product Desc: Autodesk Architectural Desktop 2007 |Company: Autodesk,Inc. |WEB Address: www.autodesk.com
 90
      129
280
     0
281
     0
  0
CLASS
  1
AEC_DISP_REP_SLAB_MODEL
  2
AecDbDispRepSlabModel
  3
AecArchBase50|Product Desc: Autodesk Architectural Desktop 2007 |Company: Autodesk,Inc. |WEB Address: www.autodesk.com
 90
      129
280
     0
281
     0
  0
CLASS
  1
AEC_DISP_REP_SLAB_PLAN
  2
AecDbDispRepSlabPlan
  3
AecArchBase50|Product Desc: Autodesk Architectural Desktop 2007 |Company: Autodesk,Inc. |WEB Address: www.autodesk.com
 90
      129
280
     0
281
     0
  0
CLASS
  1
AEC_DISP_REP_SLICE
  2
AecDbDispRepSlice
  3
AecBase50|Product Desc: Autodesk Architectural Desktop 2007 |Company: Autodesk,Inc. |WEB Address: www.autodesk.com
 90
      129
280
     0
281
     0
  0
CLASS
  1
AEC_DISP_REP_SPACE_BOUNDARY_MODEL
  2
AecDbDispRepSpaceBoundaryModel
  3
AecArchBase50|Product Desc: Autodesk Architectural Desktop 2007 |Company: Autodesk,Inc. |WEB Address: www.autodesk.com
 90
    32897
280
     0
281
     0
  0
CLASS
  1
AEC_DISP_REP_SPACE_BOUNDARY_PLAN
  2
AecDbDispRepSpaceBoundaryPlan
  3
AecArchBase50|Product Desc: Autodesk Architectural Desktop 2007 |Company: Autodesk,Inc. |WEB Address: www.autodesk.com
 90
    32897
280
     0
281
     0
  0
CLASS
  1
AEC_DISP_REP_SPACE_BOUNDARY_SCHEM
  2
AecDbDispRepSpaceBoundarySketch
  3
AecArchBase50|Product Desc: Autodesk Architectural Desktop 2007 |Company: Autodesk,Inc. |WEB Address: www.autodesk.com
 90
    32897
280
     0
281
     0
  0
CLASS
  1
AEC_DISP_REP_SPACE_MODEL
  2
AecDbDispRepSpaceModel
  3
AecArchBase50|Product Desc: Autodesk Architectural Desktop 2007 |Company: Autodesk,Inc. |WEB Address: www.autodesk.com
 90
      129
280
     0
281
     0
  0
CLASS
  1
AEC_DISP_REP_SPACE_PLAN
  2
AecDbDispRepSpacePlan
  3
AecArchBase50|Product Desc: Autodesk Architectural Desktop 2007 |Company: Autodesk,Inc. |WEB Address: www.autodesk.com
 90
      129
280
     0
281
     0
  0
CLASS
  1
AEC_DISP_REP_STAIR_MODEL
  2
AecDbDispRepStairModel
  3
AecArchBase50|Product Desc: Autodesk Architectural Desktop 2007 |Company: Autodesk,Inc. |WEB Address: www.autodesk.com
 90
      129
280
     0
281
     0
  0
CLASS
  1
AEC_DISP_REP_STAIR_PLAN
  2
AecDbDispRepStairPlan
  3
AecArchBase50|Product Desc: Autodesk Architectural Desktop 2007 |Company: Autodesk,Inc. |WEB Address: www.autodesk.com
 90
      129
280
     0
281
     0
  0
CLASS
  1
AEC_DISP_REP_WALL_GRAPH
  2
AecDbDispRepWallGraph
  3
AecArchBase50|Product Desc: Autodesk Architectural Desktop 2007 |Company: Autodesk,Inc. |WEB Address: www.autodesk.com
 90
      129
280
     0
281
     0
  0
CLASS
  1
AEC_DISP_REP_WALL_MODEL
  2
AecDbDispRepWallModel
  3
AecArchBase50|Product Desc: Autodesk Architectural Desktop 2007 |Company: Autodesk,Inc. |WEB Address: www.autodesk.com
 90
      129
280
     0
281
     0
  0
CLASS
  1
AEC_DISP_REP_WALL_PLAN
  2
AecDbDispRepWallPlan
  3
AecArchBase50|Product Desc: Autodesk Architectural Desktop 2007 |Company: Autodesk,Inc. |WEB Address: www.autodesk.com
 90
      129
280
     0
281
     0
  0
CLASS
  1
AEC_DISP_REP_WALL_SCHEM
  2
AecDbDispRepWallSchem
  3
AecArchBase50|Product Desc: Autodesk Architectural Desktop 2007 |Company: Autodesk,Inc. |WEB Address: www.autodesk.com
 90
      129
280
     0
281
     0
  0
CLASS
  1
AEC_DISP_REP_WINDOW_ASSEMBLY_MODEL
  2
AecDbDispRepWindowAssemblyModel
  3
AecArchBase50|Product Desc: Autodesk Architectural Desktop 2007 |Company: Autodesk,Inc. |WEB Address: www.autodesk.com
 90
      129
280
     0
281
     0
  0
CLASS
  1
AEC_DISP_REP_WINDOW_ASSEMBLY_PLAN
  2
AecDbDispRepWindowAssemblyPlan
  3
AecArchBase50|Product Desc: Autodesk Architectural Desktop 2007 |Company: Autodesk,Inc. |WEB Address: www.autodesk.com
 90
      129
280
     0
281
     0
  0
CLASS
  1
AEC_AECDBDISPREPWINDOWASSEMBLYPLAN100
  2
AecDbDispRepWindowAssemblyPlan100
  3
AecArchDACHBase50|Product Desc: Autodesk Architectural Desktop 2007 |Company: Autodesk,Inc. |WEB Address: www.autodesk.com
 90
      129
280
     0
281
     0
  0
CLASS
  1
AEC_DISP_REP_WINDOW_MODEL
  2
AecDbDispRepWindowModel
  3
AecArchBase50|Product Desc: Autodesk Architectural Desktop 2007 |Company: Autodesk,Inc. |WEB Address: www.autodesk.com
 90
      129
280
     0
281
     0
  0
CLASS
  1
AEC_DISP_REP_WINDOW_NOMINAL
  2
AecDbDispRepWindowNominal
  3
AecArchBase50|Product Desc: Autodesk Architectural Desktop 2007 |Company: Autodesk,Inc. |WEB Address: www.autodesk.com
 90
      129
280
     0
281
     0
  0
CLASS
  1
AEC_DISP_REP_WINDOW_PLAN
  2
AecDbDispRepWindowPlan
  3
AecArchBase50|Product Desc: Autodesk Architectural Desktop 2007 |Company: Autodesk,Inc. |WEB Address: www.autodesk.com
 90
      129
280
     0
281
     0
  0
CLASS
  1
AECS_DISP_REP_MEMBER_LOGICAL
  2
AecsDbDispRepMemberLogical
  3
AecStructureBase50|Product Desc: Autodesk Architectural Desktop 2007 |Company: Autodesk,Inc. |WEB Address: www.autodesk.com
 90
      129
280
     0
281
     0
  0
CLASS
  1
AECS_DISP_REP_MEMBER_MODEL_DESIGN
  2
AecsDbDispRepMemberModelDesign
  3
AecStructureBase50|Product Desc: Autodesk Architectural Desktop 2007 |Company: Autodesk,Inc. |WEB Address: www.autodesk.com
 90
      129
280
     0
281
     0
  0
CLASS
  1
AECS_DISP_REP_MEMBER_PLAN_DESIGN
  2
AecsDbDispRepMemberPlanDesign
  3
AecStructureBase50|Product Desc: Autodesk Architectural Desktop 2007 |Company: Autodesk,Inc. |WEB Address: www.autodesk.com
 90
      129
280
     0
281
     0
  0
CLASS
  1
AEC_DISP_PROPS_ENT
  2
AecDbDispPropsEnt
  3
AecBase50|Product Desc: Autodesk Architectural Desktop 2007 |Company: Autodesk,Inc. |WEB Address: www.autodesk.com
 90
      129
280
     0
281
     0
  0
CLASS
  1
AEC_DISP_PROPS_CLIP_VOLUME
  2
AecDbDispPropsClipVol
  3
AecBase50|Product Desc: Autodesk Architectural Desktop 2007 |Company: Autodesk,Inc. |WEB Address: www.autodesk.com
 90
      129
280
     0
281
     0
  0
CLASS
  1
AEC_DISP_PROPS_SLICE
  2
AecDbDispPropsSlice
  3
AecBase50|Product Desc: Autodesk Architectural Desktop 2007 |Company: Autodesk,Inc. |WEB Address: www.autodesk.com
 90
      129
280
     0
281
     0
  0
CLASS
  1
AEC_DISP_PROPS_ROOFSLAB_PLAN
  2
AecDbDispPropsRoofSlabPlan
  3
AecArchBase50|Product Desc: Autodesk Architectural Desktop 2007 |Company: Autodesk,Inc. |WEB Address: www.autodesk.com
 90
      129
280
     0
281
     0
  0
CLASS
  1
AEC_DISP_PROPS_GRID_ASSEMBLY_MODEL
  2
AecDbDispPropsGridAssemblyModel
  3
AecArchBase50|Product Desc: Autodesk Architectural Desktop 2007 |Company: Autodesk,Inc. |WEB Address: www.autodesk.com
 90
      129
280
     0
281
     0
  0
CLASS
  1
AEC_DISP_PROPS_ROOF
  2
AecDbDispPropsRoof
  3
AecArchBase50|Product Desc: Autodesk Architectural Desktop 2007 |Company: Autodesk,Inc. |WEB Address: www.autodesk.com
 90
      129
280
     0
281
     0
  0
CLASS
  1
AEC_DISP_PROPS_SPACE_MODEL
  2
AecDbDispPropsSpaceModel
  3
AecArchBase50|Product Desc: Autodesk Architectural Desktop 2007 |Company: Autodesk,Inc. |WEB Address: www.autodesk.com
 90
      129
280
     0
281
     0
  0
CLASS
  1
AEC_DISP_PROPS_EDITINPLACEPROFILE_MODEL
  2
AecDbDispPropsEditInPlaceProfile
  3
AecBase50|Product Desc: Autodesk Architectural Desktop 2007 |Company: Autodesk,Inc. |WEB Address: www.autodesk.com
 90
      129
280
     0
281
     0
  0
CLASS
  1
AEC_DISP_PROPS_DOOR
  2
AecDbDispPropsDoor
  3
AecArchBase50|Product Desc: Autodesk Architectural Desktop 2007 |Company: Autodesk,Inc. |WEB Address: www.autodesk.com
 90
      129
280
     0
281
     0
  0
CLASS
  1
AEC_DISP_PROPS_MASKBLOCK
  2
AecDbDispPropsMaskBlock
  3
AecBase50|Product Desc: Autodesk Architectural Desktop 2007 |Company: Autodesk,Inc. |WEB Address: www.autodesk.com
 90
      129
280
     0
281
     0
  0
CLASS
  1
AEC_DISP_PROPS_SPACE_PLAN
  2
AecDbDispPropsSpacePlan
  3
AecArchBase50|Product Desc: Autodesk Architectural Desktop 2007 |Company: Autodesk,Inc. |WEB Address: www.autodesk.com
 90
      129
280
     0
281
     0
  0
CLASS
  1
AEC_DISP_PROPS_RAILING_PLAN
  2
AecDbDispPropsRailingPlan
  3
AecArchBase50|Product Desc: Autodesk Architectural Desktop 2007 |Company: Autodesk,Inc. |WEB Address: www.autodesk.com
 90
      129
280
     0
281
     0
  0
CLASS
  1
AEC_DISP_PROPS_LAYOUT_GRID2D
  2
AecDbDispPropsLayoutGrid2d
  3
AecBase50|Product Desc: Autodesk Architectural Desktop 2007 |Company: Autodesk,Inc. |WEB Address: www.autodesk.com
 90
      129
280
     0
281
     0
  0
CLASS
  1
AEC_DISP_PROPS_CLIP_VOLUME_RESULT
  2
AecDbDispPropsClipVolResSubDiv
  3
AecBase50|Product Desc: Autodesk Architectural Desktop 2007 |Company: Autodesk,Inc. |WEB Address: www.autodesk.com
 90
      129
280
     0
281
     0
  0
CLASS
  1
AEC_DISP_PROPS_STAIR_MODEL
  2
AecDbDispPropsStairModel
  3
AecArchBase50|Product Desc: Autodesk Architectural Desktop 2007 |Company: Autodesk,Inc. |WEB Address: www.autodesk.com
 90
      129
280
     0
281
     0
  0
CLASS
  1
AEC_DISP_PROPS_LAYOUT_CURVE
  2
AecDbDispPropsLayoutCurve
  3
AecBase50|Product Desc: Autodesk Architectural Desktop 2007 |Company: Autodesk,Inc. |WEB Address: www.autodesk.com
 90
      129
280
     0
281
     0
  0
CLASS
  1
AEC_DISP_PROPS_POLYGON_MODEL
  2
AecDbDispPropsPolygonModel
  3
AecBase50|Product Desc: Autodesk Architectural Desktop 2007 |Company: Autodesk,Inc. |WEB Address: www.autodesk.com
 90
      129
280
     0
281
     0
  0
CLASS
  1
AEC_DISP_PROPS_MASS_GROUP
  2
AecDbDispPropsMassGroup
  3
AecBaseEx50|Product Desc: Autodesk Architectural Desktop 2007 |Company: Autodesk,Inc. |WEB Address: www.autodesk.com
 90
      129
280
     0
281
     0
  0
CLASS
  1
AEC_DISP_PROPS_STAIR_PLAN
  2
AecDbDispPropsStairPlan
  3
AecArchBase50|Product Desc: Autodesk Architectural Desktop 2007 |Company: Autodesk,Inc. |WEB Address: www.autodesk.com
 90
      129
280
     0
281
     0
  0
CLASS
  1
AEC_DISP_PROPS_OPENING
  2
AecDbDispPropsOpening
  3
AecArchBase50|Product Desc: Autodesk Architectural Desktop 2007 |Company: Autodesk,Inc. |WEB Address: www.autodesk.com
 90
      129
280
     0
281
     0
  0
CLASS
  1
AEC_DISP_PROPS_WALL_GRAPH
  2
AecDbDispPropsWallGraph
  3
AecArchBase50|Product Desc: Autodesk Architectural Desktop 2007 |Company: Autodesk,Inc. |WEB Address: www.autodesk.com
 90
      129
280
     0
281
     0
  0
CLASS
  1
AEC_DISP_PROPS_DOOR_NOMINAL
  2
AecDbDispPropsDoorNominal
  3
AecArchBase50|Product Desc: Autodesk Architectural Desktop 2007 |Company: Autodesk,Inc. |WEB Address: www.autodesk.com
 90
      129
280
     0
281
     0
  0
CLASS
  1
AEC_DISP_PROPS_SLAB
  2
AecDbDispPropsSlab
  3
AecArchBase50|Product Desc: Autodesk Architectural Desktop 2007 |Company: Autodesk,Inc. |WEB Address: www.autodesk.com
 90
      129
280
     0
281
     0
  0
CLASS
  1
AEC_DISP_PROPS_WALL_MODEL
  2
AecDbDispPropsWallModel
  3
AecArchBase50|Product Desc: Autodesk Architectural Desktop 2007 |Company: Autodesk,Inc. |WEB Address: www.autodesk.com
 90
      129
280
     0
281
     0
  0
CLASS
  1
AEC_DISP_PROPS_MATERIAL
  2
AecDbDispPropsMaterial
  3
AecBase50|Product Desc: Autodesk Architectural Desktop 2007 |Company: Autodesk,Inc. |WEB Address: www.autodesk.com
 90
      129
280
     0
281
     0
  0
CLASS
  1
AEC_DISP_PROPS_WINDOW
  2
AecDbDispPropsWindow
  3
AecArchBase50|Product Desc: Autodesk Architectural Desktop 2007 |Company: Autodesk,Inc. |WEB Address: www.autodesk.com
 90
      129
280
     0
281
     0
  0
CLASS
  1
AEC_DISP_PROPS_LAYOUT_GRID3D
  2
AecDbDispPropsLayoutGrid3d
  3
AecBase50|Product Desc: Autodesk Architectural Desktop 2007 |Company: Autodesk,Inc. |WEB Address: www.autodesk.com
 90
      129
280
     0
281
     0
  0
CLASS
  1
AEC_DISP_PROPS_GRID_ASSEMBLY_PLAN
  2
AecDbDispPropsGridAssemblyPlan
  3
AecArchBase50|Product Desc: Autodesk Architectural Desktop 2007 |Company: Autodesk,Inc. |WEB Address: www.autodesk.com
 90
      129
280
     0
281
     0
  0
CLASS
  1
AEC_DISP_PROPS_WALL_SCHEM
  2
AecDbDispPropsWallSchem
  3
AecArchBase50|Product Desc: Autodesk Architectural Desktop 2007 |Company: Autodesk,Inc. |WEB Address: www.autodesk.com
 90
      129
280
     0
281
     0
  0
CLASS
  1
AEC_DISP_PROPS_WALL_PLAN
  2
AecDbDispPropsWallPlan
  3
AecArchBase50|Product Desc: Autodesk Architectural Desktop 2007 |Company: Autodesk,Inc. |WEB Address: www.autodesk.com
 90
      129
280
     0
281
     0
  0
CLASS
  1
AEC_DISP_PROPS_SPACE_BOUNDARY
  2
AecDbDispPropsSpaceBoundary
  3
AecArchBase50|Product Desc: Autodesk Architectural Desktop 2007 |Company: Autodesk,Inc. |WEB Address: www.autodesk.com
 90
    32897
280
     0
281
     0
  0
CLASS
  1
AEC_DISP_PROPS_SLAB_PLAN
  2
AecDbDispPropsSlabPlan
  3
AecArchBase50|Product Desc: Autodesk Architectural Desktop 2007 |Company: Autodesk,Inc. |WEB Address: www.autodesk.com
 90
      129
280
     0
281
     0
  0
CLASS
  1
AEC_DISP_PROPS_RAILING_MODEL
  2
AecDbDispPropsRailingModel
  3
AecArchBase50|Product Desc: Autodesk Architectural Desktop 2007 |Company: Autodesk,Inc. |WEB Address: www.autodesk.com
 90
      129
280
     0
281
     0
  0
CLASS
  1
AEC_DISP_PROPS_MASS_ELEM_MODEL
  2
AecDbDispPropsMassElem
  3
AecBaseEx50|Product Desc: Autodesk Architectural Desktop 2007 |Company: Autodesk,Inc. |WEB Address: www.autodesk.com
 90
      129
280
     0
281
     0
  0
CLASS
  1
AEC_DISP_PROPS_DIM
  2
AecDbDispPropsDimGroup
  3
AecArchDACHBase50|Product Desc: Autodesk Architectural Desktop 2007 |Company: Autodesk,Inc. |WEB Address: www.autodesk.com
 90
      129
280
     0
281
     0
  0
CLASS
  1
AEC_DISP_PROPS_ROOFSLAB
  2
AecDbDispPropsRoofSlab
  3
AecArchBase50|Product Desc: Autodesk Architectural Desktop 2007 |Company: Autodesk,Inc. |WEB Address: www.autodesk.com
 90
      129
280
     0
281
     0
  0
CLASS
  1
AEC_DISP_PROPS_ENT_REF
  2
AecDbDispPropsEntRef
  3
AecBase50|Product Desc: Autodesk Architectural Desktop 2007 |Company: Autodesk,Inc. |WEB Address: www.autodesk.com
 90
      129
280
     0
281
     0
  0
CLASS
  1
AEC_DISP_PROPS_2D_SECTION
  2
AecDbDispProps2dSection
  3
AecBase50|Product Desc: Autodesk Architectural Desktop 2007 |Company: Autodesk,Inc. |WEB Address: www.autodesk.com
 90
      129
280
     0
281
     0
  0
CLASS
  1
AECS_DISP_PROPS_MEMBER_LOGICAL
  2
AecsDbDispPropsMemberLogical
  3
AecStructureBase50|Product Desc: Autodesk Architectural Desktop 2007 |Company: Autodesk,Inc. |WEB Address: www.autodesk.com
 90
      129
280
     0
281
     0
  0
CLASS
  1
AEC_DISP_PROPS_AREA_DECOMPOSED
  2
AecDbDispPropsAreaDecomposed
  3
AecAreaCalculationBase50|Product Desc: Autodesk Architectural Desktop 2007 |Company: Autodesk,Inc. |WEB Address: www.autodesk.com
 90
    32897
280
     0
281
     0
  0
CLASS
  1
AEC_DISP_PROPS_CAMERA
  2
AecDbDispPropsCamera
  3
AecBase50|Product Desc: Autodesk Architectural Desktop 2007 |Company: Autodesk,Inc. |WEB Address: www.autodesk.com
 90
    32897
280
     0
281
     0
  0
CLASS
  1
AECS_DISP_PROPS_MEMBER
  2
AecsDbDispPropsMember
  3
AecStructureBase50|Product Desc: Autodesk Architectural Desktop 2007 |Company: Autodesk,Inc. |WEB Address: www.autodesk.com
 90
      129
280
     0
281
     0
  0
CLASS
  1
AECS_DISP_PROPS_MEMBER_PLAN
  2
AecsDbDispPropsMemberPlan
  3
AecStructureBase50|Product Desc: Autodesk Architectural Desktop 2007 |Company: Autodesk,Inc. |WEB Address: www.autodesk.com
 90
      129
280
     0
281
     0
  0
CLASS
  1
AEC_DISP_PROPS_AREAGROUP
  2
AecDbDispPropsAreaGroup
  3
AecAreaCalculationBase50|Product Desc: Autodesk Architectural Desktop 2007 |Company: Autodesk,Inc. |WEB Address: www.autodesk.com
 90
    32897
280
     0
281
     0
  0
CLASS
  1
AEC_DISP_PROPS_WINDOW_NOMINAL
  2
AecDbDispPropsWindowNominal
  3
AecArchBase50|Product Desc: Autodesk Architectural Desktop 2007 |Company: Autodesk,Inc. |WEB Address: www.autodesk.com
 90
      129
280
     0
281
     0
  0
CLASS
  1
AEC_DISP_PROPS_AREA
  2
AecDbDispPropsArea
  3
AecAreaCalculationBase50|Product Desc: Autodesk Architectural Desktop 2007 |Company: Autodesk,Inc. |WEB Address: www.autodesk.com
 90
    32897
280
     0
281
     0
  0
CLASS
  1
AEC_DISP_PROPS_SCHEDULE_TABLE
  2
AecDbDispPropsScheduleTable
  3
AecSchedule50|Product Desc: Autodesk Architectural Desktop 2007 |Company: Autodesk,Inc. |WEB Address: www.autodesk.com
 90
      129
280
     0
281
     0
  0
CLASS
  1
AEC_LAYERKEY_STYLE
  2
AecDbLayerKeyStyle
  3
AecBase50|Product Desc: Autodesk Architectural Desktop 2007 |Company: Autodesk,Inc. |WEB Address: www.autodesk.com
 90
      129
280
     0
281
     0
  0
CLASS
  1
AEC_VARS_ARCHBASE
  2
AecDbVarsArchBase
  3
AecArchBase50|Product Desc: Autodesk Architectural Desktop 2007 |Company: Autodesk,Inc. |WEB Address: www.autodesk.com
 90
      129
280
     0
281
     0
  0
CLASS
  1
AEC_VARS_MUNICH
  2
AecDbVarsMunich
  3
AecArchDACHBase50|Product Desc: Autodesk Architectural Desktop 2007 |Company: Autodesk,Inc. |WEB Address: www.autodesk.com
 90
      129
280
     0
281
     0
  0
CLASS
  1
AEC_NOTIFICATION_TRACKER
  2
AecDbNotificationTracker
  3
AecBase50|Product Desc: Autodesk Architectural Desktop 2007 |Company: Autodesk,Inc. |WEB Address: www.autodesk.com
 90
      129
280
     0
281
     0
  0
CLASS
  1
AEC_DISP_REP_ANCHOR
  2
AecDbDispRepAnchor
  3
AecBase50|Product Desc: Autodesk Architectural Desktop 2007 |Company: Autodesk,Inc. |WEB Address: www.autodesk.com
 90
      129
280
     0
281
     0
  0
CLASS
  1
AEC_DISP_REP_POLYGON_TRUECOLOUR
  2
AecDbDispRepPolygonTrueColour
  3
AecBase50|Product Desc: Autodesk Architectural Desktop 2007 |Company: Autodesk,Inc. |WEB Address: www.autodesk.com
 90
      129
280
     0
281
     0
  0
CLASS
  1
AEC_DISP_PROPS_POLYGON_TRUECOLOUR
  2
AecDbDispPropsPolygonTrueColour
  3
AecBase50|Product Desc: Autodesk Architectural Desktop 2007 |Company: Autodesk,Inc. |WEB Address: www.autodesk.com
 90
      129
280
     0
281
     0
  0
CLASS
  1
AEC_DISP_REP_BDG_ELEVLINE_RCP
  2
AecDbDispRepBdgElevLineRcp
  3
AecArchBase50|Product Desc: Autodesk Architectural Desktop 2007 |Company: Autodesk,Inc. |WEB Address: www.autodesk.com
 90
      129
280
     0
281
     0
  0
CLASS
  1
AEC_DISP_REP_BDG_SECTIONLINE_RCP
  2
AecDbDispRepBdgSectionLineRcp
  3
AecArchBase50|Product Desc: Autodesk Architectural Desktop 2007 |Company: Autodesk,Inc. |WEB Address: www.autodesk.com
 90
      129
280
     0
281
     0
  0
CLASS
  1
AEC_DISP_REP_BDG_SECTION_MODEL
  2
AecDbDispRepBdgSectionModel
  3
AecArchBase50|Product Desc: Autodesk Architectural Desktop 2007 |Company: Autodesk,Inc. |WEB Address: www.autodesk.com
 90
      129
280
     0
281
     0
  0
CLASS
  1
AEC_DISP_REP_DOOR_ELEV
  2
AecDbDispRepDoorElev
  3
AecArchBase50|Product Desc: Autodesk Architectural Desktop 2007 |Company: Autodesk,Inc. |WEB Address: www.autodesk.com
 90
      129
280
     0
281
     0
  0
CLASS
  1
AEC_DISP_REP_DOOR_RCP
  2
AecDbDispRepDoorRcp
  3
AecArchBase50|Product Desc: Autodesk Architectural Desktop 2007 |Company: Autodesk,Inc. |WEB Address: www.autodesk.com
 90
      129
280
     0
281
     0
  0
CLASS
  1
AEC_DISP_REP_DOOR_THRESHOLD_PLAN
  2
AecDbDispRepDoorThresholdPlan
  3
AecArchBase50|Product Desc: Autodesk Architectural Desktop 2007 |Company: Autodesk,Inc. |WEB Address: www.autodesk.com
 90
      129
280
     0
281
     0
  0
CLASS
  1
AEC_DISP_PROPS_DOOR_THRESHOLD_PLAN
  2
AecDbDispPropsDoorThresholdPlan
  3
AecArchBase50|Product Desc: Autodesk Architectural Desktop 2007 |Company: Autodesk,Inc. |WEB Address: www.autodesk.com
 90
      129
280
     0
281
     0
  0
CLASS
  1
AEC_DISP_REP_MASS_ELEM_RCP
  2
AecDbDispRepMassElemRcp
  3
AecArchBase50|Product Desc: Autodesk Architectural Desktop 2007 |Company: Autodesk,Inc. |WEB Address: www.autodesk.com
 90
      129
280
     0
281
     0
  0
CLASS
  1
AEC_DISP_REP_MASS_GROUP_RCP
  2
AecDbDispRepMassGroupRcp
  3
AecArchBase50|Product Desc: Autodesk Architectural Desktop 2007 |Company: Autodesk,Inc. |WEB Address: www.autodesk.com
 90
      129
280
     0
281
     0
  0
CLASS
  1
AEC_DISP_REP_MVBLOCK_REF_RCP
  2
AecDbDispRepMvBlockRefRcp
  3
AecArchBase50|Product Desc: Autodesk Architectural Desktop 2007 |Company: Autodesk,Inc. |WEB Address: www.autodesk.com
 90
      129
280
     0
281
     0
  0
CLASS
  1
AEC_DISP_REP_ROOF_RCP
  2
AecDbDispRepRoofRcp
  3
AecArchBase50|Product Desc: Autodesk Architectural Desktop 2007 |Company: Autodesk,Inc. |WEB Address: www.autodesk.com
 90
      129
280
     0
281
     0
  0
CLASS
  1
AEC_DISP_REP_SPACE_BOUNDARY_DIAGRAM
  2
AecDbDispRepSpaceBoundaryDgrm
  3
AecArchBase50|Product Desc: Autodesk Architectural Desktop 2007 |Company: Autodesk,Inc. |WEB Address: www.autodesk.com
 90
    32897
280
     0
281
     0
  0
CLASS
  1
AEC_DISP_REP_SPACE_RCP
  2
AecDbDispRepSpaceRcp
  3
AecArchBase50|Product Desc: Autodesk Architectural Desktop 2007 |Company: Autodesk,Inc. |WEB Address: www.autodesk.com
 90
      129
280
     0
281
     0
  0
CLASS
  1
AEC_DISP_REP_SPACE_VOLUME
  2
AecDbDispRepSpaceVolume
  3
AecArchBase50|Product Desc: Autodesk Architectural Desktop 2007 |Company: Autodesk,Inc. |WEB Address: www.autodesk.com
 90
      129
280
     0
281
     0
  0
CLASS
  1
AEC_DISP_REP_STAIR_PLAN_OVERLAPPING
  2
AecDbDispRepStairPlanOverlapping
  3
AecArchBase50|Product Desc: Autodesk Architectural Desktop 2007 |Company: Autodesk,Inc. |WEB Address: www.autodesk.com
 90
      129
280
     0
281
     0
  0
CLASS
  1
AEC_DISP_PROPS_STAIR_PLAN_OVERLAPPING
  2
AecDbDispPropsStairPlanOverlapping
  3
AecArchBase50|Product Desc: Autodesk Architectural Desktop 2007 |Company: Autodesk,Inc. |WEB Address: www.autodesk.com
 90
      129
280
     0
281
     0
  0
CLASS
  1
AEC_DISP_REP_STAIR_RCP
  2
AecDbDispRepStairRcp
  3
AecArchBase50|Product Desc: Autodesk Architectural Desktop 2007 |Company: Autodesk,Inc. |WEB Address: www.autodesk.com
 90
      129
280
     0
281
     0
  0
CLASS
  1
AEC_DISP_REP_WALL_RCP
  2
AecDbDispRepWallRcp
  3
AecArchBase50|Product Desc: Autodesk Architectural Desktop 2007 |Company: Autodesk,Inc. |WEB Address: www.autodesk.com
 90
      129
280
     0
281
     0
  0
CLASS
  1
AEC_DISP_REP_WINDOWASSEMBLY_SILL_PLAN
  2
AecDbDispRepWindowAssemblySillPlan
  3
AecArchBase50|Product Desc: Autodesk Architectural Desktop 2007 |Company: Autodesk,Inc. |WEB Address: www.autodesk.com
 90
      129
280
     0
281
     0
  0
CLASS
  1
AEC_DISP_PROPS_WINDOW_ASSEMBLY_SILL_PLAN
  2
AecDbDispPropsWindowAssemblySillPlan
  3
AecArchBase50|Product Desc: Autodesk Architectural Desktop 2007 |Company: Autodesk,Inc. |WEB Address: www.autodesk.com
 90
      129
280
     0
281
     0
  0
CLASS
  1
AEC_DISP_REP_WINDOW_ELEV
  2
AecDbDispRepWindowElev
  3
AecArchBase50|Product Desc: Autodesk Architectural Desktop 2007 |Company: Autodesk,Inc. |WEB Address: www.autodesk.com
 90
      129
280
     0
281
     0
  0
CLASS
  1
AEC_DISP_REP_WINDOW_RCP
  2
AecDbDispRepWindowRcp
  3
AecArchBase50|Product Desc: Autodesk Architectural Desktop 2007 |Company: Autodesk,Inc. |WEB Address: www.autodesk.com
 90
      129
280
     0
281
     0
  0
CLASS
  1
AEC_DISP_REP_WINDOW_SILL_PLAN
  2
AecDbDispRepWindowSillPlan
  3
AecArchBase50|Product Desc: Autodesk Architectural Desktop 2007 |Company: Autodesk,Inc. |WEB Address: www.autodesk.com
 90
      129
280
     0
281
     0
  0
CLASS
  1
AEC_DISP_PROPS_WINDOW_SILL_PLAN
  2
AecDbDispPropsWindowSillPlan
  3
AecArchBase50|Product Desc: Autodesk Architectural Desktop 2007 |Company: Autodesk,Inc. |WEB Address: www.autodesk.com
 90
      129
280
     0
281
     0
  0
CLASS
  1
AEC_DISP_REP_ANCHOR_BUB_TO_GRID_RCP
  2
AecDbDispRepAnchorBubToGridRcp
  3
AecStructureBase50|Product Desc: Autodesk Architectural Desktop 2007 |Company: Autodesk,Inc. |WEB Address: www.autodesk.com
 90
      129
280
     0
281
     0
  0
CLASS
  1
AEC_DISP_REP_COLUMN_GRID_RCP
  2
AecDbDispRepColumnGridRcp
  3
AecStructureBase50|Product Desc: Autodesk Architectural Desktop 2007 |Company: Autodesk,Inc. |WEB Address: www.autodesk.com
 90
      129
280
     0
281
     0
  0
CLASS
  1
AECS_DISP_REP_MEMBER_ELEVATION_DESIGN
  2
AecsDbDispRepMemberElevationDesign
  3
AecStructureBase50|Product Desc: Autodesk Architectural Desktop 2007 |Company: Autodesk,Inc. |WEB Address: www.autodesk.com
 90
      129
280
     0
281
     0
  0
CLASS
  1
AECS_DISP_PROPS_MEMBER_PROJECTED
  2
AecsDbDispPropsMemberProjected
  3
AecStructureBase50|Product Desc: Autodesk Architectural Desktop 2007 |Company: Autodesk,Inc. |WEB Address: www.autodesk.com
 90
      129
280
     0
281
     0
  0
CLASS
  1
AECS_DISP_REP_MEMBER_ELEVATION_DETAIL
  2
AecsDbDispRepMemberElevationDetail
  3
AecStructureBase50|Product Desc: Autodesk Architectural Desktop 2007 |Company: Autodesk,Inc. |WEB Address: www.autodesk.com
 90
      129
280
     0
281
     0
  0
CLASS
  1
AECS_DISP_REP_MEMBER_MODEL_DETAIL
  2
AecsDbDispRepMemberModelDetail
  3
AecStructureBase50|Product Desc: Autodesk Architectural Desktop 2007 |Company: Autodesk,Inc. |WEB Address: www.autodesk.com
 90
      129
280
     0
281
     0
  0
CLASS
  1
AECS_DISP_REP_MEMBER_PLAN_DETAIL
  2
AecsDbDispRepMemberPlanDetail
  3
AecStructureBase50|Product Desc: Autodesk Architectural Desktop 2007 |Company: Autodesk,Inc. |WEB Address: www.autodesk.com
 90
      129
280
     0
281
     0
  0
CLASS
  1
AECS_DISP_REP_MEMBER_PLAN_SKETCH
  2
AecsDbDispRepMemberPlanSketch
  3
AecStructureBase50|Product Desc: Autodesk Architectural Desktop 2007 |Company: Autodesk,Inc. |WEB Address: www.autodesk.com
 90
      129
280
     0
281
     0
  0
CLASS
  1
AECS_DISP_PROPS_MEMBER_PLAN_SKETCH
  2
AecsDbDispPropsMemberPlanSketch
  3
AecStructureBase50|Product Desc: Autodesk Architectural Desktop 2007 |Company: Autodesk,Inc. |WEB Address: www.autodesk.com
 90
      129
280
     0
281
     0
  0
CLASS
  1
AEC_AECDBDISPREPAREA100
  2
AecDbDispRepArea100
  3
AecArchDACHBase50|Product Desc: Autodesk Architectural Desktop 2007 |Company: Autodesk,Inc. |WEB Address: www.autodesk.com
 90
    32897
280
     0
281
     0
  0
CLASS
  1
AEC_AECDBDISPREPAREAGROUP100
  2
AecDbDispRepAreaGroup100
  3
AecArchDACHBase50|Product Desc: Autodesk Architectural Desktop 2007 |Company: Autodesk,Inc. |WEB Address: www.autodesk.com
 90
    32897
280
     0
281
     0
  0
CLASS
  1
AEC_AECDBDISPREPBDGELEVLINEPLAN100
  2
AecDbDispRepBdgElevLinePlan100
  3
AecArchDACHBase50|Product Desc: Autodesk Architectural Desktop 2007 |Company: Autodesk,Inc. |WEB Address: www.autodesk.com
 90
      129
280
     0
281
     0
  0
CLASS
  1
AEC_AECDBDISPREPBDGSECTIONLINEPLAN100
  2
AecDbDispRepBdgSectionLinePlan100
  3
AecArchDACHBase50|Product Desc: Autodesk Architectural Desktop 2007 |Company: Autodesk,Inc. |WEB Address: www.autodesk.com
 90
      129
280
     0
281
     0
  0
CLASS
  1
AEC_AECDBDISPREPCEILINGGRIDPLAN100
  2
AecDbDispRepCeilingGridPlan100
  3
AecArchDACHBase50|Product Desc: Autodesk Architectural Desktop 2007 |Company: Autodesk,Inc. |WEB Address: www.autodesk.com
 90
      129
280
     0
281
     0
  0
CLASS
  1
AEC_AECDBDISPREPCOLUMNGRIDPLAN100
  2
AecDbDispRepColumnGridPlan100
  3
AecArchDACHBase50|Product Desc: Autodesk Architectural Desktop 2007 |Company: Autodesk,Inc. |WEB Address: www.autodesk.com
 90
      129
280
     0
281
     0
  0
CLASS
  1
AEC_AECDBDISPREPCURTAINWALLLAYOUTPLAN100
  2
AecDbDispRepCurtainWallLayoutPlan100
  3
AecArchDACHBase50|Product Desc: Autodesk Architectural Desktop 2007 |Company: Autodesk,Inc. |WEB Address: www.autodesk.com
 90
      129
280
     0
281
     0
  0
CLASS
  1
AEC_AECDBDISPREPCURTAINWALLUNITPLAN100
  2
AecDbDispRepCurtainWallUnitPlan100
  3
AecArchDACHBase50|Product Desc: Autodesk Architectural Desktop 2007 |Company: Autodesk,Inc. |WEB Address: www.autodesk.com
 90
      129
280
     0
281
     0
  0
CLASS
  1
AEC_AECDBDISPREPMVBLOCKREFPLAN100
  2
AecDbDispRepMvBlockRefPlan100
  3
AecArchDACHBase50|Product Desc: Autodesk Architectural Desktop 2007 |Company: Autodesk,Inc. |WEB Address: www.autodesk.com
 90
      129
280
     0
281
     0
  0
CLASS
  1
AEC_AECDBDISPREPROOFPLAN100
  2
AecDbDispRepRoofPlan100
  3
AecArchDACHBase50|Product Desc: Autodesk Architectural Desktop 2007 |Company: Autodesk,Inc. |WEB Address: www.autodesk.com
 90
      129
280
     0
281
     0
  0
CLASS
  1
AEC_AECDBDISPREPROOFSLABPLAN100
  2
AecDbDispRepRoofSlabPlan100
  3
AecArchDACHBase50|Product Desc: Autodesk Architectural Desktop 2007 |Company: Autodesk,Inc. |WEB Address: www.autodesk.com
 90
      129
280
     0
281
     0
  0
CLASS
  1
AEC_AECDBDISPREPSLABPLAN100
  2
AecDbDispRepSlabPlan100
  3
AecArchDACHBase50|Product Desc: Autodesk Architectural Desktop 2007 |Company: Autodesk,Inc. |WEB Address: www.autodesk.com
 90
      129
280
     0
281
     0
  0
CLASS
  1
AEC_AECDBDISPREPSPACEBOUNDARYPLAN100
  2
AecDbDispRepSpaceBoundaryPlan100
  3
AecArchDACHBase50|Product Desc: Autodesk Architectural Desktop 2007 |Company: Autodesk,Inc. |WEB Address: www.autodesk.com
 90
    32897
280
     0
281
     0
  0
CLASS
  1
AEC_AECDBDISPREPSPACEPLAN100
  2
AecDbDispRepSpacePlan100
  3
AecArchDACHBase50|Product Desc: Autodesk Architectural Desktop 2007 |Company: Autodesk,Inc. |WEB Address: www.autodesk.com
 90
      129
280
     0
281
     0
  0
CLASS
  1
AEC_AECDBDISPREPWALLPLAN100
  2
AecDbDispRepWallPlan100
  3
AecArchDACHBase50|Product Desc: Autodesk Architectural Desktop 2007 |Company: Autodesk,Inc. |WEB Address: www.autodesk.com
 90
      129
280
     0
281
     0
  0
CLASS
  1
AEC_AECDBDISPREPAREA50
  2
AecDbDispRepArea50
  3
AecArchDACHBase50|Product Desc: Autodesk Architectural Desktop 2007 |Company: Autodesk,Inc. |WEB Address: www.autodesk.com
 90
    32897
280
     0
281
     0
  0
CLASS
  1
AEC_AECDBDISPREPAREAGROUP50
  2
AecDbDispRepAreaGroup50
  3
AecArchDACHBase50|Product Desc: Autodesk Architectural Desktop 2007 |Company: Autodesk,Inc. |WEB Address: www.autodesk.com
 90
    32897
280
     0
281
     0
  0
CLASS
  1
AEC_AECDBDISPREPBDGELEVLINEPLAN50
  2
AecDbDispRepBdgElevLinePlan50
  3
AecArchDACHBase50|Product Desc: Autodesk Architectural Desktop 2007 |Company: Autodesk,Inc. |WEB Address: www.autodesk.com
 90
      129
280
     0
281
     0
  0
CLASS
  1
AEC_AECDBDISPREPBDGSECTIONLINEPLAN50
  2
AecDbDispRepBdgSectionLinePlan50
  3
AecArchDACHBase50|Product Desc: Autodesk Architectural Desktop 2007 |Company: Autodesk,Inc. |WEB Address: www.autodesk.com
 90
      129
280
     0
281
     0
  0
CLASS
  1
AEC_AECDBDISPREPCEILINGGRIDPLAN50
  2
AecDbDispRepCeilingGridPlan50
  3
AecArchDACHBase50|Product Desc: Autodesk Architectural Desktop 2007 |Company: Autodesk,Inc. |WEB Address: www.autodesk.com
 90
      129
280
     0
281
     0
  0
CLASS
  1
AEC_AECDBDISPREPCOLUMNGRIDPLAN50
  2
AecDbDispRepColumnGridPlan50
  3
AecArchDACHBase50|Product Desc: Autodesk Architectural Desktop 2007 |Company: Autodesk,Inc. |WEB Address: www.autodesk.com
 90
      129
280
     0
281
     0
  0
CLASS
  1
AEC_AECDBDISPREPCURTAINWALLLAYOUTPLAN50
  2
AecDbDispRepCurtainWallLayoutPlan50
  3
AecArchDACHBase50|Product Desc: Autodesk Architectural Desktop 2007 |Company: Autodesk,Inc. |WEB Address: www.autodesk.com
 90
      129
280
     0
281
     0
  0
CLASS
  1
AEC_AECDBDISPREPCURTAINWALLUNITPLAN50
  2
AecDbDispRepCurtainWallUnitPlan50
  3
AecArchDACHBase50|Product Desc: Autodesk Architectural Desktop 2007 |Company: Autodesk,Inc. |WEB Address: www.autodesk.com
 90
      129
280
     0
281
     0
  0
CLASS
  1
AEC_AECDBDISPREPMVBLOCKREFPLAN50
  2
AecDbDispRepMvBlockRefPlan50
  3
AecArchDACHBase50|Product Desc: Autodesk Architectural Desktop 2007 |Company: Autodesk,Inc. |WEB Address: www.autodesk.com
 90
      129
280
     0
281
     0
  0
CLASS
  1
AEC_AECDBDISPREPROOFPLAN50
  2
AecDbDispRepRoofPlan50
  3
AecArchDACHBase50|Product Desc: Autodesk Architectural Desktop 2007 |Company: Autodesk,Inc. |WEB Address: www.autodesk.com
 90
      129
280
     0
281
     0
  0
CLASS
  1
AEC_AECDBDISPREPROOFSLABPLAN50
  2
AecDbDispRepRoofSlabPlan50
  3
AecArchDACHBase50|Product Desc: Autodesk Architectural Desktop 2007 |Company: Autodesk,Inc. |WEB Address: www.autodesk.com
 90
      129
280
     0
281
     0
  0
CLASS
  1
AEC_AECDBDISPREPSLABPLAN50
  2
AecDbDispRepSlabPlan50
  3
AecArchDACHBase50|Product Desc: Autodesk Architectural Desktop 2007 |Company: Autodesk,Inc. |WEB Address: www.autodesk.com
 90
      129
280
     0
281
     0
  0
CLASS
  1
AEC_AECDBDISPREPSPACEBOUNDARYPLAN50
  2
AecDbDispRepSpaceBoundaryPlan50
  3
AecArchDACHBase50|Product Desc: Autodesk Architectural Desktop 2007 |Company: Autodesk,Inc. |WEB Address: www.autodesk.com
 90
    32897
280
     0
281
     0
  0
CLASS
  1
AEC_AECDBDISPREPSPACEPLAN50
  2
AecDbDispRepSpacePlan50
  3
AecArchDACHBase50|Product Desc: Autodesk Architectural Desktop 2007 |Company: Autodesk,Inc. |WEB Address: www.autodesk.com
 90
      129
280
     0
281
     0
  0
CLASS
  1
AEC_AECDBDISPREPWALLPLAN50
  2
AecDbDispRepWallPlan50
  3
AecArchDACHBase50|Product Desc: Autodesk Architectural Desktop 2007 |Company: Autodesk,Inc. |WEB Address: www.autodesk.com
 90
      129
280
     0
281
     0
  0
CLASS
  1
AEC_AECDBDISPREPWINDOWASSEMBLYPLAN50
  2
AecDbDispRepWindowAssemblyPlan50
  3
AecArchDACHBase50|Product Desc: Autodesk Architectural Desktop 2007 |Company: Autodesk,Inc. |WEB Address: www.autodesk.com
 90
      129
280
     0
281
     0
  0
CLASS
  1
AEC_DB_DISP_REP_DIM_GROUP_PLAN100
  2
AecDbDispRepDimGroupPlan100
  3
AecArchDACHBase50|Product Desc: Autodesk Architectural Desktop 2007 |Company: Autodesk,Inc. |WEB Address: www.autodesk.com
 90
      129
280
     0
281
     0
  0
CLASS
  1
AEC_DB_DISP_REP_DIM_GROUP_PLAN50
  2
AecDbDispRepDimGroupPlan50
  3
AecArchDACHBase50|Product Desc: Autodesk Architectural Desktop 2007 |Company: Autodesk,Inc. |WEB Address: www.autodesk.com
 90
      129
280
     0
281
     0
  0
CLASS
  1
AEC_DISP_REP_DOOR_PLAN_50
  2
AecDbDispRepDoorPlan50
  3
AecArchDACHBase50|Product Desc: Autodesk Architectural Desktop 2007 |Company: Autodesk,Inc. |WEB Address: www.autodesk.com
 90
      129
280
     0
281
     0
  0
CLASS
  1
AEC_DISP_PROPS_DOOR_PLAN_50
  2
AecDbDispPropsDoorPlan50
  3
AecArchDACHBase50|Product Desc: Autodesk Architectural Desktop 2007 |Company: Autodesk,Inc. |WEB Address: www.autodesk.com
 90
      129
280
     0
281
     0
  0
CLASS
  1
AEC_DISP_REP_DOOR_PLAN_HEKTO
  2
AecDbDispRepDoorPlanHekto
  3
AecArchDACHBase50|Product Desc: Autodesk Architectural Desktop 2007 |Company: Autodesk,Inc. |WEB Address: www.autodesk.com
 90
      129
280
     0
281
     0
  0
CLASS
  1
AEC_DISP_PROPS_DOOR_PLAN_100
  2
AecDbDispPropsDoorPlan100
  3
AecArchDACHBase50|Product Desc: Autodesk Architectural Desktop 2007 |Company: Autodesk,Inc. |WEB Address: www.autodesk.com
 90
      129
280
     0
281
     0
  0
CLASS
  1
AEC_DISP_REP_DOOR_THRESHOLD_SYMBOL_PLAN
  2
AecDbDispRepDoorThresholdSymbolPlan
  3
AecArchDACHBase50|Product Desc: Autodesk Architectural Desktop 2007 |Company: Autodesk,Inc. |WEB Address: www.autodesk.com
 90
      129
280
     0
281
     0
  0
CLASS
  1
AEC_DISP_PROPS_DOOR_THRESHOLD_SYMBOL_PLAN
  2
AecDbDispPropsDoorThresholdSymbolPlan
  3
AecArchDACHBase50|Product Desc: Autodesk Architectural Desktop 2007 |Company: Autodesk,Inc. |WEB Address: www.autodesk.com
 90
      129
280
     0
281
     0
  0
CLASS
  1
AEC_DISPREPAECDBDISPREPMASSELEMPLAN100
  2
AecDbDispRepMassElemPlan100
  3
AecArchDACHBase50|Product Desc: Autodesk Architectural Desktop 2007 |Company: Autodesk,Inc. |WEB Address: www.autodesk.com
 90
      129
280
     0
281
     0
  0
CLASS
  1
AEC_DISPROPSMASSELEMPLANCOMMON
  2
AecDbDispPropsMassElemPlanCommon
  3
AecArchDACHBase50|Product Desc: Autodesk Architectural Desktop 2007 |Company: Autodesk,Inc. |WEB Address: www.autodesk.com
 90
      129
280
     0
281
     0
  0
CLASS
  1
AEC_DISPREPAECDBDISPREPMASSELEMPLAN50
  2
AecDbDispRepMassElemPlan50
  3
AecArchDACHBase50|Product Desc: Autodesk Architectural Desktop 2007 |Company: Autodesk,Inc. |WEB Address: www.autodesk.com
 90
      129
280
     0
281
     0
  0
CLASS
  1
AEC_DISPREPAECDBDISPREPMASSGROUPPLAN100
  2
AecDbDispRepMassGroupPlan100
  3
AecArchDACHBase50|Product Desc: Autodesk Architectural Desktop 2007 |Company: Autodesk,Inc. |WEB Address: www.autodesk.com
 90
      129
280
     0
281
     0
  0
CLASS
  1
AEC_DISPROPSMASSGROUPPLANCOMMON
  2
AecDbDispPropsMassGroupPlanCommon
  3
AecArchDACHBase50|Product Desc: Autodesk Architectural Desktop 2007 |Company: Autodesk,Inc. |WEB Address: www.autodesk.com
 90
      129
280
     0
281
     0
  0
CLASS
  1
AEC_DISPREPAECDBDISPREPMASSGROUPPLAN50
  2
AecDbDispRepMassGroupPlan50
  3
AecArchDACHBase50|Product Desc: Autodesk Architectural Desktop 2007 |Company: Autodesk,Inc. |WEB Address: www.autodesk.com
 90
      129
280
     0
281
     0
  0
CLASS
  1
AEC_DISPREPAECDBDISPREPOPENINGPLAN100
  2
AecDbDispRepOpeningPlan100
  3
AecArchDACHBase50|Product Desc: Autodesk Architectural Desktop 2007 |Company: Autodesk,Inc. |WEB Address: www.autodesk.com
 90
      129
280
     0
281
     0
  0
CLASS
  1
AEC_DISPROPSOPENINGPLANCOMMONHATCHED
  2
AecDbDispPropsOpeningPlanCommonHatched
  3
AecArchDACHBase50|Product Desc: Autodesk Architectural Desktop 2007 |Company: Autodesk,Inc. |WEB Address: www.autodesk.com
 90
      129
280
     0
281
     0
  0
CLASS
  1
AEC_DISPREPAECDBDISPREPOPENINGPLAN50
  2
AecDbDispRepOpeningPlan50
  3
AecArchDACHBase50|Product Desc: Autodesk Architectural Desktop 2007 |Company: Autodesk,Inc. |WEB Address: www.autodesk.com
 90
      129
280
     0
281
     0
  0
CLASS
  1
AEC_DISPREPAECDBDISPREPOPENINGPLANREFLECTED
  2
AecDbDispRepOpeningPlanReflected
  3
AecArchDACHBase50|Product Desc: Autodesk Architectural Desktop 2007 |Company: Autodesk,Inc. |WEB Address: www.autodesk.com
 90
      129
280
     0
281
     0
  0
CLASS
  1
AEC_DISPROPSOPENINGPLANCOMMON
  2
AecDbDispPropsOpeningPlanCommon
  3
AecArchDACHBase50|Product Desc: Autodesk Architectural Desktop 2007 |Company: Autodesk,Inc. |WEB Address: www.autodesk.com
 90
      129
280
     0
281
     0
  0
CLASS
  1
AEC_DISPREPAECDBDISPREPOPENINGSILLPLAN
  2
AecDbDispRepOpeningSillPlan
  3
AecArchDACHBase50|Product Desc: Autodesk Architectural Desktop 2007 |Company: Autodesk,Inc. |WEB Address: www.autodesk.com
 90
      129
280
     0
281
     0
  0
CLASS
  1
AEC_DISPROPSOPENINGSILLPLAN
  2
AecDbDispPropsOpeningSillPlan
  3
AecArchDACHBase50|Product Desc: Autodesk Architectural Desktop 2007 |Company: Autodesk,Inc. |WEB Address: www.autodesk.com
 90
      129
280
     0
281
     0
  0
CLASS
  1
AEC_DISP_REP_RAILING_PLAN_100
  2
AecDbDispRepRailingPlan100
  3
AecArchDACHBase50|Product Desc: Autodesk Architectural Desktop 2007 |Company: Autodesk,Inc. |WEB Address: www.autodesk.com
 90
      129
280
     0
281
     0
  0
CLASS
  1
AEC_DISP_ROPS_RAILING_PLAN_100
  2
AecDbDispPropsRailingPlan100
  3
AecArchDACHBase50|Product Desc: Autodesk Architectural Desktop 2007 |Company: Autodesk,Inc. |WEB Address: www.autodesk.com
 90
      129
280
     0
281
     0
  0
CLASS
  1
AEC_DISP_REP_RAILING_PLAN_50
  2
AecDbDispRepRailingPlan50
  3
AecArchDACHBase50|Product Desc: Autodesk Architectural Desktop 2007 |Company: Autodesk,Inc. |WEB Address: www.autodesk.com
 90
      129
280
     0
281
     0
  0
CLASS
  1
AEC_DISP_ROPS_RAILING_PLAN_50
  2
AecDbDispPropsRailingPlan50
  3
AecArchDACHBase50|Product Desc: Autodesk Architectural Desktop 2007 |Company: Autodesk,Inc. |WEB Address: www.autodesk.com
 90
      129
280
     0
281
     0
  0
CLASS
  1
AEC_DISP_REP_STAIR_PLAN_100
  2
AecDbDispRepStairPlan100
  3
AecArchDACHBase50|Product Desc: Autodesk Architectural Desktop 2007 |Company: Autodesk,Inc. |WEB Address: www.autodesk.com
 90
      129
280
     0
281
     0
  0
CLASS
  1
AEC_DISP_ROPS_STAIR_PLAN_100
  2
AecDbDispPropsStairPlan100
  3
AecArchDACHBase50|Product Desc: Autodesk Architectural Desktop 2007 |Company: Autodesk,Inc. |WEB Address: www.autodesk.com
 90
      129
280
     0
281
     0
  0
CLASS
  1
AEC_DISP_REP_STAIR_PLAN_50
  2
AecDbDispRepStairPlan50
  3
AecArchDACHBase50|Product Desc: Autodesk Architectural Desktop 2007 |Company: Autodesk,Inc. |WEB Address: www.autodesk.com
 90
      129
280
     0
281
     0
  0
CLASS
  1
AEC_DISP_ROPS_STAIR_PLAN_50
  2
AecDbDispPropsStairPlan50
  3
AecArchDACHBase50|Product Desc: Autodesk Architectural Desktop 2007 |Company: Autodesk,Inc. |WEB Address: www.autodesk.com
 90
      129
280
     0
281
     0
  0
CLASS
  1
AEC_DISP_REP_WINDOW_PLAN_100
  2
AecDbDispRepWindowPlan100
  3
AecArchDACHBase50|Product Desc: Autodesk Architectural Desktop 2007 |Company: Autodesk,Inc. |WEB Address: www.autodesk.com
 90
      129
280
     0
281
     0
  0
CLASS
  1
AEC_DISP_PROPS_WINDOW_PLAN_100
  2
AecDbDispPropsWindowPlan100
  3
AecArchDACHBase50|Product Desc: Autodesk Architectural Desktop 2007 |Company: Autodesk,Inc. |WEB Address: www.autodesk.com
 90
      129
280
     0
281
     0
  0
CLASS
  1
AEC_DISP_REP_WINDOW_PLAN_50
  2
AecDbDispRepWindowPlan50
  3
AecArchDACHBase50|Product Desc: Autodesk Architectural Desktop 2007 |Company: Autodesk,Inc. |WEB Address: www.autodesk.com
 90
      129
280
     0
281
     0
  0
CLASS
  1
AEC_DISP_PROPS_WINDOW_PLAN_50
  2
AecDbDispPropsWindowPlan50
  3
AecArchDACHBase50|Product Desc: Autodesk Architectural Desktop 2007 |Company: Autodesk,Inc. |WEB Address: www.autodesk.com
 90
      129
280
     0
281
     0
  0
CLASS
  1
BINRECORD
  2
AcAecBinRecord
  3
AecBase50|Product Desc: Autodesk Architectural Desktop 2007 |Company: Autodesk,Inc. |WEB Address: www.autodesk.com
 90
      129
280
     0
281
     0
  0
CLASS
  1
SPATIAL_FILTER
  2
AcDbSpatialFilter
  3
ObjectDBX Classes
 90
    32768
280
     0
281
     0
  0
CLASS
  1
AEC_VARS_STRUCTUREBASE
  2
AecsDbVarsStructureBase
  3
AecStructureBase50|Product Desc: Autodesk Architectural Desktop 2007 |Company: Autodesk,Inc. |WEB Address: www.autodesk.com
 90
    32897
280
     0
281
     0
  0
CLASS
  1
DIMASSOC
  2
AcDbDimAssoc
  3
"AcDbDimAssoc|Product Desc:     AcDim ARX App For Dimension|Company:          Autodesk, Inc.|WEB Address:      www.autodesk.com"
 90
    32768
280
     0
281
     0
  0
CLASS
  1
TABLESTYLE
  2
AcDbTableStyle
  3
ObjectDBX Classes
 90
     4095
280
     0
281
     0
  0
CLASS
  1
MATERIAL
  2
AcDbMaterial
  3
ObjectDBX Classes
 90
     1153
280
     0
281
     0
  0
CLASS
  1
VISUALSTYLE
  2
AcDbVisualStyle
  3
ObjectDBX Classes
 90
     4095
280
     0
281
     0
  0
CLASS
  1
EXACXREFPANELOBJECT
  2
ExAcXREFPanelObject
  3
EXAC_ESW
 90
    33793
280
     0
281
     0
  0
CLASS
  1
NPOCOLLECTION
  2
AcDbImpNonPersistentObjectsCollection
  3
ObjectDBX Classes
 90
    33921
280
     0
281
     0
  0
CLASS
  1
AEC_AECDBDISPREPZONE100
  2
AecDbDispRepZonePlan100
  3
AecArchDACHBase50|Product Desc: Autodesk Architectural Desktop 2007 |Company: Autodesk,Inc. |WEB Address: www.autodesk.com
 90
      129
280
     0
281
     0
  0
CLASS
  1
AEC_DISP_PROPS_ZONE
  2
AecDbDispPropsZone
  3
AecArchBase50|Product Desc: Autodesk Architectural Desktop 2007 |Company: Autodesk,Inc. |WEB Address: www.autodesk.com
 90
      129
280
     0
281
     0
  0
CLASS
  1
AEC_AECDBDISPREPZONE50
  2
AecDbDispRepZonePlan50
  3
AecArchDACHBase50|Product Desc: Autodesk Architectural Desktop 2007 |Company: Autodesk,Inc. |WEB Address: www.autodesk.com
 90
      129
280
     0
281
     0
  0
CLASS
  1
AEC_DISP_REP_DISPLAYTHEME
  2
AecDbDispRepDisplayTheme
  3
AecBase50|Product Desc: Autodesk Architectural Desktop 2007 |Company: Autodesk,Inc. |WEB Address: www.autodesk.com
 90
      129
280
     0
281
     0
  0
CLASS
  1
AEC_DISP_PROPS_DISPLAYTHEME
  2
AecDbDispPropsDisplayTheme
  3
AecBase50|Product Desc: Autodesk Architectural Desktop 2007 |Company: Autodesk,Inc. |WEB Address: www.autodesk.com
 90
      129
280
     0
281
     0
  0
CLASS
  1
AEC_DISP_REP_ANCHOR_EXT_TAG_TO_ENT
  2
AecDbDispRepAnchorExtendedTagToEnt
  3
AecScheduleData50|Product Desc: Autodesk Architectural Desktop 2007 |Company: Autodesk,Inc. |WEB Address: www.autodesk.com
 90
      129
280
     0
281
     0
  0
CLASS
  1
AEC_DISP_REP_SPACE_DECOMPOSED
  2
AecDbDispRepSpaceDecomposed
  3
AecArchBase50|Product Desc: Autodesk Architectural Desktop 2007 |Company: Autodesk,Inc. |WEB Address: www.autodesk.com
 90
      129
280
     0
281
     0
  0
CLASS
  1
AEC_DISP_PROPS_SPACE_DECOMPOSED
  2
AecDbDispPropsSpaceDecomposed
  3
AecArchBase50|Product Desc: Autodesk Architectural Desktop 2007 |Company: Autodesk,Inc. |WEB Address: www.autodesk.com
 90
      129
280
     0
281
     0
  0
CLASS
  1
AEC_DISP_REP_ZONE
  2
AecDbDispRepZone
  3
AecArchBase50|Product Desc: Autodesk Architectural Desktop 2007 |Company: Autodesk,Inc. |WEB Address: www.autodesk.com
 90
      129
280
     0
281
     0
  0
ENDSEC
  0
SECTION
  2
TABLES
  0
TABLE
  2
VPORT
  5
1C
330
0
100
AcDbSymbolTable
 70
     1
  0
VPORT
  5
1728
330
1C
100
AcDbSymbolTableRecord
100
AcDbViewportTableRecord
  2
*Active
 70
     0
 10
0.0
 20
0.0
 11
1.0
 21
1.0
 12
236583.3765064352
 22
135256.3879426001
 13
0.0
 23
0.0
 14
10.0
 24
10.0
 15
10.0
 25
10.0
 16
0.0
 26
0.0
 36
1.0
 17
0.0
 27
0.0
 37
0.0
 40
57270.68211746636
 41
1.758620689655172
 42
50.0
 43
0.0
 44
0.0
 50
0.0
 51
0.0
 71
     0
 72
  1000
 73
     1
 74
     1
 75
     0
 76
     0
 77
     0
 78
     0
281
     0
 65
     1
110
0.0
120
0.0
130
0.0
111
1.0
121
0.0
131
0.0
112
0.0
122
1.0
132
0.0
 79
     0
146
0.0
  0
ENDTAB
  0
TABLE
  2
LTYPE
  5
17
330
0
100
AcDbSymbolTable
 70
     6
  0
LTYPE
  5
18
330
17
100
AcDbSymbolTableRecord
100
AcDbLinetypeTableRecord
  2
ByBlock
 70
     0
  3

 72
    65
 73
     0
 40
0.0
  0
LTYPE
  5
19
330
17
100
AcDbSymbolTableRecord
100
AcDbLinetypeTableRecord
  2
ByLayer
 70
     0
  3

 72
    65
 73
     0
 40
0.0
  0
LTYPE
  5
8
330
17
100
AcDbSymbolTableRecord
100
AcDbLinetypeTableRecord
  2
Continuous
 70
     0
  3
Solid line
 72
    65
 73
     0
 40
0.0
  0
LTYPE
  5
158
330
17
100
AcDbSymbolTableRecord
100
AcDbLinetypeTableRecord
  2
HIDDEN
 70
     0
  3
Hidden __ __ __ __ __ __ __ __ __ __ __ __ __ _
 72
    65
 73
     2
 40
0.375
 49
0.25
 74
     0
 49
-0.125
 74
     0
  0
ENDTAB
  0
TABLE
  2
LAYER
  5
11
102
{ACAD_XDICTIONARY
360
12
102
}
330
0
100
AcDbSymbolTable
 70
    22
  0
LAYER
  5
4
330
11
100
AcDbSymbolTableRecord
100
AcDbLayerTableRecord
  2
0
 70
     0
 62
     7
  6
Continuous
370
    -3
390
5
1001
RAK
1000
{ACET-LAYISO
1070
     0
1070
     7
1000
Continuous
1071
       -3
1071
        1
1005
5
1000
ACET-LAYISO}
  0
LAYER
  5
65
330
11
100
AcDbSymbolTableRecord
100
AcDbLayerTableRecord
  2
DEFPOINTS
 70
     0
 62
     7
  6
Continuous
290
     0
370
    -3
390
5
1001
RAK
1000
{ACET-LAYISO
1070
     0
1070
     7
1000
Continuous
1071
       -3
1071
        0
1005
5
1000
ACET-LAYISO}
  0
LAYER
  5
15E
330
11
100
AcDbSymbolTableRecord
100
AcDbLayerTableRecord
  2
RAMKI-A4
 70
     0
 62
     2
  6
Continuous
290
     0
370
    -3
390
5
1001
RAK
1000
{ACET-LAYISO
1070
     0
1070
     2
1000
Continuous
1071
       -3
1071
        0
1005
5
1000
ACET-LAYISO}
  0
LAYER
  5
BB
330
11
100
AcDbSymbolTableRecord
100
AcDbLayerTableRecord
  2
SZRAF
 70
     0
 62
   100
  6
Continuous
370
    -3
390
5
1001
RAK
1000
{ACET-LAYISO
1070
     0
1070
   100
1000
Continuous
1071
       -3
1071
        1
1005
5
1000
ACET-LAYISO}
  0
LAYER
  5
143
330
11
100
AcDbSymbolTableRecord
100
AcDbLayerTableRecord
  2
NAPISY
 70
     0
 62
   140
  6
Continuous
370
    -3
390
5
1001
RAK
1000
{ACET-LAYISO
1070
     0
1070
   140
1000
Continuous
1071
       -3
1071
        1
1005
5
1000
ACET-LAYISO}
  0
LAYER
  5
5E2
330
11
100
AcDbSymbolTableRecord
100
AcDbLayerTableRecord
  2
TEREN$0$A-MassElement-G
 70
     0
 62
   210
  6
Continuous
370
     9
390
5
1001
AcAecLayerStandard
1000
BS1192 - Descriptive
1001
RAK
1000
{ACET-LAYISO
1070
     0
1070
   210
1000
Continuous
1071
        9
1071
        1
1005
5
1000
ACET-LAYISO}
  0
LAYER
  5
202C
330
11
100
AcDbSymbolTableRecord
100
AcDbLayerTableRecord
  2
0Hatch
 70
     0
 62
   122
  6
Continuous
370
     5
390
5
  0
LAYER
  5
2081
330
11
100
AcDbSymbolTableRecord
100
AcDbLayerTableRecord
  2
0Wymiary-PL
 70
     0
 62
     1
  6
Continuous
370
     5
390
5
  0
LAYER
  5
FA60
330
11
100
AcDbSymbolTableRecord
100
AcDbLayerTableRecord
  2
WYMIARY
 70
     0
 62
     1
  6
Continuous
370
    -3
390
5
1001
RAK
1000
{ACET-LAYISO
1070
     0
1070
     1
1000
CONTINUOUS
1071
       -3
1071
        1
1005
5
1000
ACET-LAYISO}
  0
ENDTAB
  0
TABLE
  2
STYLE
  5
14
330
0
100
AcDbSymbolTable
 70
     4
  0
STYLE
  5
15
330
14
100
AcDbSymbolTableRecord
100
AcDbTextStyleTableRecord
  2
Standard
 70
     0
 40
0.0
 41
1.0
 50
0.0
 71
     0
 42
2.5
  3
txt
  4

  0
STYLE
  5
22
330
14
100
AcDbSymbolTableRecord
100
AcDbTextStyleTableRecord
  2
ROMANS
 70
     0
 40
0.0
 41
0.9
 50
0.0
 71
     0
 42
20.0
  3
romans.shx
  4

  0
STYLE
  5
144
330
14
100
AcDbSymbolTableRecord
100
AcDbTextStyleTableRecord
  2
AVA
 70
     0
 40
0.0
 41
1.0
 50
0.0
 71
     0
 42
158.5644099714409
  3
ARIAL.TTF
  4

1001
ACAD
1000
Arial CE
1071
    60962
  0
ENDTAB
  0
TABLE
  2
VIEW
  5
1A
330
0
100
AcDbSymbolTable
 70
     1
  0
VIEW
  5
C
330
1A
100
AcDbSymbolTableRecord
100
AcDbViewTableRecord
  2
RODODENDRON 5
 70
     0
 40
14020.0
 10
220287.1664355166
 20
148687.514558954
 41
10200.00000000003
 11
0.0
 21
0.0
 31
1.0
 12
0.0
 22
0.0
 32
0.0
 42
50.0
 43
0.0
 44
0.0
 50
0.0
 71
     0
281
     0
 72
     1
110
0.0
120
0.0
130
0.0
111
1.0
121
0.0
131
0.0
112
0.0
122
1.0
132
0.0
 79
     0
146
0.0
  0
ENDTAB
  0
TABLE
  2
UCS
  5
1B
330
0
100
AcDbSymbolTable
 70
     0
  0
ENDTAB
  0
TABLE
  2
APPID
  5
1E
330
0
100
AcDbSymbolTable
 70
    13
  0
APPID
  5
1F
330
1E
100
AcDbSymbolTableRecord
100
AcDbRegAppTableRecord
  2
ACAD
 70
     0
  0
APPID
  5
1E1
330
1E
100
AcDbSymbolTableRecord
100
AcDbRegAppTableRecord
  2
RAK
 70
     0
  0
APPID
  5
1E2
330
1E
100
AcDbSymbolTableRecord
100
AcDbRegAppTableRecord
  2
AcAecLayerStandard
 70
     0
  0
APPID
  5
A87
330
1E
100
AcDbSymbolTableRecord
100
AcDbRegAppTableRecord
  2
ACAD_PSEXT
 70
     0
  0
APPID
  5
C44
330
1E
100
AcDbSymbolTableRecord
100
AcDbRegAppTableRecord
  2
DCO15
 70
     0
  0
APPID
  5
1744
330
1E
100
AcDbSymbolTableRecord
100
AcDbRegAppTableRecord
  2
ACAD_EXEMPT_FROM_CAD_STANDARDS
 70
     0
  0
APPID
  5
1745
330
1E
100
AcDbSymbolTableRecord
100
AcDbRegAppTableRecord
  2
ACAD_DSTYLE_DIM_LINETYPE
 70
     0
  0
APPID
  5
1746
330
1E
100
AcDbSymbolTableRecord
100
AcDbRegAppTableRecord
  2
ACAD_DSTYLE_DIM_EXT1_LINETYPE
 70
     0
  0
APPID
  5
1747
330
1E
100
AcDbSymbolTableRecord
100
AcDbRegAppTableRecord
  2
ACAD_DSTYLE_DIM_EXT2_LINETYPE
 70
     0
  0
APPID
  5
1988
330
1E
100
AcDbSymbolTableRecord
100
AcDbRegAppTableRecord
  2
AcLayerTools
 70
     0
  0
APPID
  5
6A86
330
1E
100
AcDbSymbolTableRecord
100
AcDbRegAppTableRecord
  2
AcDbBlockRepETag
 70
     0
  0
APPID
  5
82FB
330
1E
100
AcDbSymbolTableRecord
100
AcDbRegAppTableRecord
  2
AECBASE
 70
     0
  0
APPID
  5
82FC
330
1E
100
AcDbSymbolTableRecord
100
AcDbRegAppTableRecord
  2
AEC_OBJVER_INFO
 70
     0
  0
ENDTAB
  0
TABLE
  2
DIMSTYLE
  5
20
330
0
100
AcDbSymbolTable
 70
    14
100
AcDbDimStyleTable
 71
     2
340
21
340
2B
  0
DIMSTYLE
105
21
330
20
100
AcDbSymbolTableRecord
100
AcDbDimStyleTableRecord
  2
500
 70
     0
 41
30.0
 42
43.0
 43
0.0
 44
13.0
 45
0.5
 46
12.0
 73
     0
 74
     0
 75
     1
 76
     1
 78
    12
140
80.0
141
0.0
145
1.0
147
0.0
172
     1
174
     1
176
     1
177
     1
178
    10
271
     1
272
     1
279
     2
340
22
341
23
342
23
  0
DIMSTYLE
105
2B
330
20
100
AcDbSymbolTableRecord
100
AcDbDimStyleTableRecord
  2
Standard
 70
     0
340
15
  0
DIMSTYLE
105
FA61
330
20
100
AcDbSymbolTableRecord
100
AcDbDimStyleTableRecord
  2
100-archon
 70
     0
 41
8.0
 42
43.0
 43
24.0
 44
13.0
 45
0.5
 46
12.0
 73
     0
 74
     0
 75
     1
 76
     1
 78
     8
140
16.0
141
0.0
145
1.0
147
4.0
172
     1
174
     1
176
     1
177
     1
178
   140
271
     1
272
     1
279
     2
340
22
341
FA47
342
23
371
     5
  0
DIMSTYLE
105
FA62
330
20
100
AcDbSymbolTableRecord
100
AcDbDimStyleTableRecord
  2
Aec_Stair_M
 70
     0
 40
100.0
 41
2.5
 42
0.625
 43
3.75
 44
1.25
 73
     0
 74
     0
 77
     1
 78
     8
140
2.5
141
2.5
143
0.03937007874016
147
0.625
171
     3
172
     1
173
     1
271
     2
272
     2
274
     3
278
    44
283
     0
284
     8
340
15
341
FA52
343
FA52
344
FA4C
  0
DIMSTYLE
105
FA63
330
20
100
AcDbSymbolTableRecord
100
AcDbDimStyleTableRecord
  2
200-archon
 70
     0
 40
2.0
 41
10.0
 42
43.0
 43
24.0
 44
13.0
 45
0.5
 46
12.0
 73
     0
 74
     0
 75
     1
 76
     1
 78
     8
140
16.0
141
0.0
145
1.0
147
4.0
172
     1
174
     1
176
     1
177
     1
178
   140
271
     1
272
     1
279
     2
340
22
341
FA47
342
23
371
     5
  0
DIMSTYLE
105
FA64
330
20
100
AcDbSymbolTableRecord
100
AcDbDimStyleTableRecord
  2
100-PR
 70
     0
 41
15.0
 42
43.0
 43
24.0
 44
13.0
 45
0.5
 46
12.0
 73
     0
 74
     0
 75
     1
 76
     1
 77
     1
 78
     8
140
30.0
141
0.0
145
1.0
147
12.0
172
     1
174
     1
176
     7
177
     1
178
   140
271
     1
272
     1
279
     2
340
22
341
FA47
342
FA56
371
     5
  0
DIMSTYLE
105
FA65
330
20
100
AcDbSymbolTableRecord
100
AcDbDimStyleTableRecord
  2
100-PRw
 70
     0
 41
1.0
 42
43.0
 43
24.0
 44
13.0
 45
0.5
 46
12.0
 73
     0
 74
     0
 75
     1
 76
     1
 77
     1
 78
     8
140
30.0
141
0.0
145
1.0
147
8.0
172
     1
174
     1
176
     1
177
     1
178
   140
271
     1
272
     1
279
     2
340
22
341
FA47
342
FA5C
371
     5
  0
ENDTAB
  0
TABLE
  2
BLOCK_RECORD
  5
1
330
0
100
AcDbSymbolTable
 70
   101
  0
BLOCK_RECORD
  5
2
102
{ACAD_XDICTIONARY
360
1FEF
102
}
330
1
100
AcDbSymbolTableRecord
100
AcDbBlockTableRecord
  2
*Model_Space
340
A
  0
BLOCK_RECORD
  5
D
330
1
100
AcDbSymbolTableRecord
100
AcDbBlockTableRecord
  2
*Paper_Space
340
10
  0
BLOCK_RECORD
  5
23
102
{ACAD_XDICTIONARY
360
24
102
}
330
1
100
AcDbSymbolTableRecord
100
AcDbBlockTableRecord
  2
B-DIM
340
0
102
{BLKREFS
331
E032
331
E033
331
E039
331
E03A
331
E042
331
E043
331
E04B
331
E04C
331
E052
331
E053
331
E05B
331
E05C
331
E06F
331
E070
331
E228
331
E229
331
E22F
331
E230
331
E238
331
E239
331
E266
331
E267
331
E26D
331
E26E
331
E276
331
E277
331
E27D
331
E27E
331
E286
331
E287
331
E28D
331
E28E
331
F4BF
331
F4C0
331
F4CA
331
F4CB
331
F4D7
331
F4D8
331
F4E2
331
F4E3
331
F4EB
331
F4EC
331
F4F2
331
F4F3
331
F4F9
331
F4FA
331
F684
331
F685
331
F68B
331
F68C
331
F692
331
F693
331
F6BB
331
F6BC
331
F6C2
331
F6C3
331
F6CB
331
F6CC
331
F6D2
331
F6D3
331
F9DE
331
F9DF
331
F9E5
331
F9E6
331
F9EC
331
F9ED
331
F9F5
331
F9F6
331
F9FC
331
F9FD
331
FA05
331
FA06
331
FA0C
331
FA0D
331
FA13
331
FA14
331
FA1A
331
FA1B
331
FA21
331
FA22
331
FA2A
331
FA2B
331
FA31
331
FA32
331
FA3A
331
FA3B
331
FA41
331
FA42
102
}
  0
BLOCK_RECORD
  5
F48C
330
1
100
AcDbSymbolTableRecord
100
AcDbBlockTableRecord
  2
*D67
340
0
  0
BLOCK_RECORD
  5
F497
330
1
100
AcDbSymbolTableRecord
100
AcDbBlockTableRecord
  2
*D68
340
0
  0
BLOCK_RECORD
  5
F4B0
330
1
100
AcDbSymbolTableRecord
100
AcDbBlockTableRecord
  2
*D69
340
0
  0
BLOCK_RECORD
  5
F4BB
330
1
100
AcDbSymbolTableRecord
100
AcDbBlockTableRecord
  2
*D70
340
0
  0
BLOCK_RECORD
  5
F4C8
330
1
100
AcDbSymbolTableRecord
100
AcDbBlockTableRecord
  2
*D71
340
0
  0
BLOCK_RECORD
  5
F4D3
330
1
100
AcDbSymbolTableRecord
100
AcDbBlockTableRecord
  2
*D72
340
0
  0
BLOCK_RECORD
  5
F4E0
330
1
100
AcDbSymbolTableRecord
100
AcDbBlockTableRecord
  2
*D73
340
0
  0
BLOCK_RECORD
  5
F639
330
1
100
AcDbSymbolTableRecord
100
AcDbBlockTableRecord
  2
*D74
340
0
  0
BLOCK_RECORD
  5
F643
330
1
100
AcDbSymbolTableRecord
100
AcDbBlockTableRecord
  2
*D75
340
0
  0
BLOCK_RECORD
  5
F64D
330
1
100
AcDbSymbolTableRecord
100
AcDbBlockTableRecord
  2
*D76
340
0
  0
BLOCK_RECORD
  5
F657
330
1
100
AcDbSymbolTableRecord
100
AcDbBlockTableRecord
  2
*D77
340
0
  0
BLOCK_RECORD
  5
F663
330
1
100
AcDbSymbolTableRecord
100
AcDbBlockTableRecord
  2
*D78
340
0
  0
BLOCK_RECORD
  5
F66D
330
1
100
AcDbSymbolTableRecord
100
AcDbBlockTableRecord
  2
*D79
340
0
  0
BLOCK_RECORD
  5
F679
330
1
100
AcDbSymbolTableRecord
100
AcDbBlockTableRecord
  2
*D80
340
0
  0
BLOCK_RECORD
  5
F949
330
1
100
AcDbSymbolTableRecord
100
AcDbBlockTableRecord
  2
*D81
340
0
  0
BLOCK_RECORD
  5
F953
330
1
100
AcDbSymbolTableRecord
100
AcDbBlockTableRecord
  2
*D82
340
0
  0
BLOCK_RECORD
  5
F95D
330
1
100
AcDbSymbolTableRecord
100
AcDbBlockTableRecord
  2
*D83
340
0
  0
BLOCK_RECORD
  5
F967
330
1
100
AcDbSymbolTableRecord
100
AcDbBlockTableRecord
  2
*D84
340
0
  0
BLOCK_RECORD
  5
F973
330
1
100
AcDbSymbolTableRecord
100
AcDbBlockTableRecord
  2
*D85
340
0
  0
BLOCK_RECORD
  5
F97D
330
1
100
AcDbSymbolTableRecord
100
AcDbBlockTableRecord
  2
*D86
340
0
  0
BLOCK_RECORD
  5
F989
330
1
100
AcDbSymbolTableRecord
100
AcDbBlockTableRecord
  2
*D87
340
0
  0
BLOCK_RECORD
  5
F993
330
1
100
AcDbSymbolTableRecord
100
AcDbBlockTableRecord
  2
*D88
340
0
  0
BLOCK_RECORD
  5
F99D
330
1
100
AcDbSymbolTableRecord
100
AcDbBlockTableRecord
  2
*D89
340
0
  0
BLOCK_RECORD
  5
F9A7
330
1
100
AcDbSymbolTableRecord
100
AcDbBlockTableRecord
  2
*D90
340
0
  0
BLOCK_RECORD
  5
F9B1
330
1
100
AcDbSymbolTableRecord
100
AcDbBlockTableRecord
  2
*D91
340
0
  0
BLOCK_RECORD
  5
F9BD
330
1
100
AcDbSymbolTableRecord
100
AcDbBlockTableRecord
  2
*D92
340
0
  0
BLOCK_RECORD
  5
F9C7
330
1
100
AcDbSymbolTableRecord
100
AcDbBlockTableRecord
  2
*D93
340
0
  0
BLOCK_RECORD
  5
F9D3
330
1
100
AcDbSymbolTableRecord
100
AcDbBlockTableRecord
  2
*D94
340
0
  0
BLOCK_RECORD
  5
FA47
330
1
100
AcDbSymbolTableRecord
100
AcDbBlockTableRecord
  2
_Dot
340
0
  0
BLOCK_RECORD
  5
FA4C
330
1
100
AcDbSymbolTableRecord
100
AcDbBlockTableRecord
  2
_Open90
340
0
  0
BLOCK_RECORD
  5
FA52
330
1
100
AcDbSymbolTableRecord
100
AcDbBlockTableRecord
  2
_Small
340
0
310
2800000020000000200000000100080000000000000400000000000000000000000000000000000000000000000080000080000000808000800000008000800080800000C0C0C000C0DCC000F0CAA6000020400000206000002080000020A0000020C0000020E00000400000004020000040400000406000004080000040A0
310
000040C0000040E00000600000006020000060400000606000006080000060A0000060C0000060E00000800000008020000080400000806000008080000080A0000080C0000080E00000A0000000A0200000A0400000A0600000A0800000A0A00000A0C00000A0E00000C0000000C0200000C0400000C0600000C0800000C0
310
A00000C0C00000C0E00000E0000000E0200000E0400000E0600000E0800000E0A00000E0C00000E0E00040000000400020004000400040006000400080004000A0004000C0004000E00040200000402020004020400040206000402080004020A0004020C0004020E000404000004040200040404000404060004040800040
310
40A0004040C0004040E00040600000406020004060400040606000406080004060A0004060C0004060E00040800000408020004080400040806000408080004080A0004080C0004080E00040A0000040A0200040A0400040A0600040A0800040A0A00040A0C00040A0E00040C0000040C0200040C0400040C0600040C08000
310
40C0A00040C0C00040C0E00040E0000040E0200040E0400040E0600040E0800040E0A00040E0C00040E0E00080000000800020008000400080006000800080008000A0008000C0008000E00080200000802020008020400080206000802080008020A0008020C0008020E00080400000804020008040400080406000804080
310
008040A0008040C0008040E00080600000806020008060400080606000806080008060A0008060C0008060E00080800000808020008080400080806000808080008080A0008080C0008080E00080A0000080A0200080A0400080A0600080A0800080A0A00080A0C00080A0E00080C0000080C0200080C0400080C0600080C0
310
800080C0A00080C0C00080C0E00080E0000080E0200080E0400080E0600080E0800080E0A00080E0C00080E0E000C0000000C0002000C0004000C0006000C0008000C000A000C000C000C000E000C0200000C0202000C0204000C0206000C0208000C020A000C020C000C020E000C0400000C0402000C0404000C0406000C0
310
408000C040A000C040C000C040E000C0600000C0602000C0604000C0606000C0608000C060A000C060C000C060E000C0800000C0802000C0804000C0806000C0808000C080A000C080C000C080E000C0A00000C0A02000C0A04000C0A06000C0A08000C0A0A000C0A0C000C0A0E000C0C00000C0C02000C0C04000C0C06000
310
C0C08000C0C0A000F0FBFF00A4A0A000808080000000FF0000FF000000FFFF00FF000000FF00FF00FFFF0000FFFFFF00FFFFFFFFFFFFFFFFFFFFFFFFFFFFFFFFFFFFFFFFFFFFFFFFFFFFFFFFFFFFFFFFFFFFFFFFFFFFFFFFFFFFFFFFFF00000000FFFFFFFFFFFFFFFFFFFFFFFFFFFFFFFFFFFFFFFFFFFFFFFFFF000000FFFF
310
FFFF0000000000FFFFFFFFFFFFFFFFFFFFFFFFFFFFFFFFFFFF0000FFFFFFFFFFFFFFFFFFFFFFFF00FFFFFFFFFFFFFFFFFFFFFFFFFFFFFF0000FFFFFFFFFFFFFFFFFFFFFFFFFFFFFF00FFFFFFFFFFFFFFFFFFFFFFFFFF00FFFFFFFFFFFFFFFFFFFFFFFFFFFFFFFFFFFF00FFFFFFFFFFFFFFFFFFFFFFFF00FFFFFFFFFFFFFFFF
310
FFFFFFFFFFFFFFFFFFFFFF00FFFFFFFFFFFFFFFFFFFF00FFFFFFFFFFFFFFFFFFFFFFFFFFFFFFFFFFFFFFFFFF00FFFFFFFFFFFFFFFF00FFFFFFFFFFFFFFFFFFFFFFFFFFFFFFFFFFFFFFFFFFFFFF00FFFFFFFFFFFFFF00FFFFFFFFFFFFFFFFFFFFFFFFFFFFFFFFFFFFFFFFFFFFFF00FFFFFFFFFFFF00FFFFFFFFFFFFFFFFFFFF
310
FFFFFFFFFFFFFFFFFFFFFFFFFFFFFF00FFFFFFFF00FFFFFFFFFFFFFFFFFFFFFFFFFFFFFFFFFFFFFFFFFFFFFFFFFFFF00FFFFFFFF00FFFFFFFFFFFFFFFFFFFFFFFFFFFFFFFFFFFFFFFFFFFFFFFFFFFF00FFFFFFFF00FFFFFFFFFFFFFFFFFFFFFFFFFFFFFFFFFFFFFFFFFFFFFFFFFFFF00FFFFFFFF00FFFFFFFFFFFFFFFFFFFF
310
FFFFFFFFFFFFFFFFFFFFFFFFFFFFFFFFFF00FFFFFF00FFFFFFFFFFFFFFFFFFFFFFFFFFFFFFFFFFFFFFFFFFFFFFFFFFFFFF00FFFFFF00FFFFFFFFFFFFFFFFFFFFFFFFFFFFFFFFFFFFFFFFFFFFFFFFFFFFFF00FFFFFF00FFFFFFFFFFFFFFFFFFFFFFFFFFFFFFFFFFFFFFFFFFFFFFFFFFFF00FFFFFFFF00FFFFFFFFFFFFFFFFFF
310
FFFFFFFFFFFFFFFFFFFFFFFFFFFFFFFFFF00FFFFFFFF00FFFFFFFFFFFFFFFFFFFFFFFFFFFFFFFFFFFFFFFFFFFFFFFFFFFF00FFFFFFFFFF00FFFFFFFFFFFFFFFFFFFFFFFFFFFFFFFFFFFFFFFFFFFFFFFFFF00FFFFFFFFFFFF00FFFFFFFFFFFFFFFFFFFFFFFFFFFFFFFFFFFFFFFFFFFFFF00FFFFFFFFFFFFFF00FFFFFFFFFFFF
310
FFFFFFFFFFFFFFFFFFFFFFFFFFFFFFFFFF00FFFFFFFFFFFFFFFF00FFFFFFFFFFFFFFFFFFFFFFFFFFFFFFFFFFFFFFFFFF00FFFFFFFFFFFFFFFFFFFF00FFFFFFFFFFFFFFFFFFFFFFFFFFFFFFFFFFFFFF00FFFFFFFFFFFFFFFFFFFFFF00FFFFFFFFFFFFFFFFFFFFFFFFFFFFFFFFFFFF00FFFFFFFFFFFFFFFFFFFFFFFFFF0000FF
310
FFFFFFFFFFFFFFFFFFFFFFFFFFFF00FFFFFFFFFFFFFFFFFFFFFFFFFFFFFFFF0000FFFFFFFFFFFFFFFFFFFFFFFF00FFFFFFFFFFFFFFFFFFFFFFFFFFFFFFFFFFFFFF000000FFFFFFFF0000000000FFFFFFFFFFFFFFFFFFFFFFFFFFFFFFFFFFFFFFFFFFFFFF00000000FFFFFFFFFFFFFFFFFFFFFFFFFFFFFFFFFFFFFFFFFFFFFF
310
FFFFFFFFFFFFFFFFFFFFFFFFFFFFFFFFFFFFFFFFFFFFFFFFFFFFFFFFFFFFFFFFFFFFFFFFFFFFFFFFFFFFFFFFFFFFFFFFFFFFFFFFFFFFFFFF
  0
BLOCK_RECORD
  5
FA56
330
1
100
AcDbSymbolTableRecord
100
AcDbBlockTableRecord
  2
B-DIM_K
340
0
310
2800000020000000200000000100080000000000000400000000000000000000000000000000000000000000000080000080000000808000800000008000800080800000C0C0C000C0DCC000F0CAA6000020400000206000002080000020A0000020C0000020E00000400000004020000040400000406000004080000040A0
310
000040C0000040E00000600000006020000060400000606000006080000060A0000060C0000060E00000800000008020000080400000806000008080000080A0000080C0000080E00000A0000000A0200000A0400000A0600000A0800000A0A00000A0C00000A0E00000C0000000C0200000C0400000C0600000C0800000C0
310
A00000C0C00000C0E00000E0000000E0200000E0400000E0600000E0800000E0A00000E0C00000E0E00040000000400020004000400040006000400080004000A0004000C0004000E00040200000402020004020400040206000402080004020A0004020C0004020E000404000004040200040404000404060004040800040
310
40A0004040C0004040E00040600000406020004060400040606000406080004060A0004060C0004060E00040800000408020004080400040806000408080004080A0004080C0004080E00040A0000040A0200040A0400040A0600040A0800040A0A00040A0C00040A0E00040C0000040C0200040C0400040C0600040C08000
310
40C0A00040C0C00040C0E00040E0000040E0200040E0400040E0600040E0800040E0A00040E0C00040E0E00080000000800020008000400080006000800080008000A0008000C0008000E00080200000802020008020400080206000802080008020A0008020C0008020E00080400000804020008040400080406000804080
310
008040A0008040C0008040E00080600000806020008060400080606000806080008060A0008060C0008060E00080800000808020008080400080806000808080008080A0008080C0008080E00080A0000080A0200080A0400080A0600080A0800080A0A00080A0C00080A0E00080C0000080C0200080C0400080C0600080C0
310
800080C0A00080C0C00080C0E00080E0000080E0200080E0400080E0600080E0800080E0A00080E0C00080E0E000C0000000C0002000C0004000C0006000C0008000C000A000C000C000C000E000C0200000C0202000C0204000C0206000C0208000C020A000C020C000C020E000C0400000C0402000C0404000C0406000C0
310
408000C040A000C040C000C040E000C0600000C0602000C0604000C0606000C0608000C060A000C060C000C060E000C0800000C0802000C0804000C0806000C0808000C080A000C080C000C080E000C0A00000C0A02000C0A04000C0A06000C0A08000C0A0A000C0A0C000C0A0E000C0C00000C0C02000C0C04000C0C06000
310
C0C08000C0C0A000F0FBFF00A4A0A000808080000000FF0000FF000000FFFF00FF000000FF00FF00FFFF0000FFFFFF0000000000000000000000000000000000000000000000000000000000000000000000000000000000000000000000000000000000000000000000000000000000000000000000000000000000000000
310
0000000000000000000000000000000000000000000000000000000000000000FF00000000000000000000000000000000000000000000000000000000000000FF00000000000000000000000000000000000000000000000000000000000000FF000000000000000000000000000000000000000000000000000000000000
310
00FF0000000000000000000000000000000000000000000000FF00000000000000FF000000000000000000000000000000000000000000000000FF000000000000FF00000000000000000000000000000000000000000000000000FF0000000000FF0000000000000000000000000000000000000000000000000000FF0000
310
0000FF000000000000000000000000000000000000000000000000000000FF000000FF00000000000000000000000000000000000000000000000000000000FF0000FF0000000000000000000000000000000000000000000000000000000000FF00FF00000000000000000000000000000000000000000000000000000000
310
0000FFFF00000000000000000000000000000000000000000000000000000000000000FF0000000000000000000000000000000000FFFFFFFFFFFFFFFFFFFFFFFFFFFFFFFFFFFFFFFFFFFFFFFFFFFFFFFFFF0000000000000000000000000000000000FF00FF00000000000000000000000000000000000000000000000000
310
00000000FF0000FF00000000000000000000000000000000000000000000000000000000FF000000FF000000000000000000000000000000000000000000000000000000FF00000000FF0000000000000000000000000000000000000000000000000000FF0000000000FF0000000000000000000000000000000000000000
310
0000000000FF000000000000FF000000000000000000000000000000000000000000000000FF00000000000000FF0000000000000000000000000000000000000000000000FF00000000000000000000000000000000000000000000000000000000000000FF00000000000000000000000000000000000000000000000000
310
000000000000FF00000000000000000000000000000000000000000000000000000000000000FF00000000000000000000000000000000000000000000000000000000000000000000000000000000000000000000000000000000000000000000000000000000000000000000000000000000000000000000000000000000
310
0000000000000000000000000000000000000000000000000000000000000000000000000000000000000000000000000000000000000000
1001
ACAD
1000
DesignCenter Data
1002
{
1070
     1
1070
     1
1002
}
  0
BLOCK_RECORD
  5
FA5C
330
1
100
AcDbSymbolTableRecord
100
AcDbBlockTableRecord
  2
B-DIM_W
340
0
310
2800000020000000200000000100080000000000000400000000000000000000000000000000000000000000000080000080000000808000800000008000800080800000C0C0C000C0DCC000F0CAA6000020400000206000002080000020A0000020C0000020E00000400000004020000040400000406000004080000040A0
310
000040C0000040E00000600000006020000060400000606000006080000060A0000060C0000060E00000800000008020000080400000806000008080000080A0000080C0000080E00000A0000000A0200000A0400000A0600000A0800000A0A00000A0C00000A0E00000C0000000C0200000C0400000C0600000C0800000C0
310
A00000C0C00000C0E00000E0000000E0200000E0400000E0600000E0800000E0A00000E0C00000E0E00040000000400020004000400040006000400080004000A0004000C0004000E00040200000402020004020400040206000402080004020A0004020C0004020E000404000004040200040404000404060004040800040
310
40A0004040C0004040E00040600000406020004060400040606000406080004060A0004060C0004060E00040800000408020004080400040806000408080004080A0004080C0004080E00040A0000040A0200040A0400040A0600040A0800040A0A00040A0C00040A0E00040C0000040C0200040C0400040C0600040C08000
310
40C0A00040C0C00040C0E00040E0000040E0200040E0400040E0600040E0800040E0A00040E0C00040E0E00080000000800020008000400080006000800080008000A0008000C0008000E00080200000802020008020400080206000802080008020A0008020C0008020E00080400000804020008040400080406000804080
310
008040A0008040C0008040E00080600000806020008060400080606000806080008060A0008060C0008060E00080800000808020008080400080806000808080008080A0008080C0008080E00080A0000080A0200080A0400080A0600080A0800080A0A00080A0C00080A0E00080C0000080C0200080C0400080C0600080C0
310
800080C0A00080C0C00080C0E00080E0000080E0200080E0400080E0600080E0800080E0A00080E0C00080E0E000C0000000C0002000C0004000C0006000C0008000C000A000C000C000C000E000C0200000C0202000C0204000C0206000C0208000C020A000C020C000C020E000C0400000C0402000C0404000C0406000C0
310
408000C040A000C040C000C040E000C0600000C0602000C0604000C0606000C0608000C060A000C060C000C060E000C0800000C0802000C0804000C0806000C0808000C080A000C080C000C080E000C0A00000C0A02000C0A04000C0A06000C0A08000C0A0A000C0A0C000C0A0E000C0C00000C0C02000C0C04000C0C06000
310
C0C08000C0C0A000F0FBFF00A4A0A000808080000000FF0000FF000000FFFF00FF000000FF00FF00FFFF0000FFFFFF0000000000000000000000000000000000000000000000000000000000000000000000000000000000000000000000000000000000000000000000000000000000000000000000000000000000000000
310
00000000000000000000000000000000000000000000000000000000000000000000000000000000000000000000000000000000000000000000000000000000000000000000000000000000000000000000000000000000000000000000000000000000000000000000000000000000000000000000000000000000000000
310
00000000000000000000000000000000000000000000000000000000000000000000000000000000000000000000000000000000000000000000000000000000000000000000000000000000000000000000000000000000000000000000000000000000000000000000000000000000000000000000000000000000000000
310
00000000000000000000000000000000000000F9F9F9F9F9F9F900000000000000000000000000000000000000000000000000F9000000000000F9F9F9F9F9F900000000000000000000000000000000000000F9000000000000000000000000F9F9F9F9F90000000000000000000000000000F90000000000000000000000
310
000000000000F9F9F9F9F9F90000000000000000F90000000000000000000000000000000000000000000000F9F9F9F9F9F90000F900000000000000000000000000000000000000000000F9F9F9F9F9F9F90000F90000000000000000000000000000F9F9F9F9F9F9F9F9000000000000000000F900000000000000F9F9F9
310
F9F9F9F90000000000000000000000000000000000F9F9F9F9F9F9F9F90000000000000000000000000000000000000000000000000000000000000000000000000000000000000000000000000000000000000000000000000000000000000000000000000000000000000000000000000000000000000000000000000000
310
00000000000000000000000000000000000000000000000000000000000000000000000000000000000000000000000000000000000000000000000000000000000000000000000000000000000000000000000000000000000000000000000000000000000000000000000000000000000000000000000000000000000000
310
00000000000000000000000000000000000000000000000000000000000000000000000000000000000000000000000000000000000000000000000000000000000000000000000000000000000000000000000000000000000000000000000000000000000000000000000000000000000000000000000000000000000000
310
0000000000000000000000000000000000000000000000000000000000000000000000000000000000000000000000000000000000000000
  0
ENDTAB
  0
ENDSEC
  0
SECTION
  2
BLOCKS
  0
BLOCK
  5
3
330
2
100
AcDbEntity
  8
0
100
AcDbBlockBegin
  2
*Model_Space
 70
     0
 10
0.0
 20
0.0
 30
0.0
  3
*Model_Space
  1

  0
ENDBLK
  5
9
330
2
100
AcDbEntity
  8
0
100
AcDbBlockEnd
  0
BLOCK
  5
E
330
D
100
AcDbEntity
 67
     1
  8
0
100
AcDbBlockBegin
  2
*Paper_Space
 70
     0
 10
0.0
 20
0.0
 30
0.0
  3
*Paper_Space
  1

  0
ENDBLK
  5
F
330
D
100
AcDbEntity
 67
     1
  8
0
100
AcDbBlockEnd
  0
BLOCK
  5
26
330
23
100
AcDbEntity
  8
0
100
AcDbBlockBegin
  2
B-DIM
 70
     0
 10
0.0
 20
0.0
 30
0.0
  3
B-DIM
  1

  0
LINE
  5
27
330
23
100
AcDbEntity
  8
0
 62
     1
100
AcDbLine
 10
0.000000000000091
 20
-1.1
 30
0.0
 11
0.000000000000091
 21
1.1
 31
0.0
  0
LWPOLYLINE
  5
28
330
23
100
AcDbEntity
  8
0
 62
     1
100
AcDbPolyline
 90
        2
 70
     0
 43
0.3
 10
-0.7071067811864851
 20
-0.7071067811864851
 10
0.707106781186576
 20
0.707106781186576
  0
LINE
  5
29
330
23
100
AcDbEntity
  8
0
 62
     1
100
AcDbLine
 10
1.20000000000009
 20
0.0
 30
0.0
 11
-1.199999999999909
 21
0.0
 31
0.0
  0
ENDBLK
  5
2A
330
23
100
AcDbEntity
  8
0
100
AcDbBlockEnd
  0
BLOCK
  5
F494
330
F48C
100
AcDbEntity
  8
0
100
AcDbBlockBegin
  2
*D67
 70
     1
 10
0.0
 20
0.0
 30
0.0
  3
*D67
  1

  0
LINE
  5
F4EA
330
F48C
100
AcDbEntity
  8
0Wymiary-PL
 62
     1
370
    -2
100
AcDbLine
 10
217535.7116024333
 20
137118.318410901
 30
0.0
 11
217825.7116024333
 21
137118.318410901
 31
0.0
  0
INSERT
  5
F4EB
330
F48C
100
AcDbEntity
  8
0Wymiary-PL
 62
     1
370
    -2
100
AcDbBlockReference
  2
B-DIM
 10
217505.7116024333
 20
137118.318410901
 30
0.0
 41
30.0
 42
30.0
 43
30.0
 50
180.0
  0
INSERT
  5
F4EC
330
F48C
100
AcDbEntity
  8
0Wymiary-PL
 62
     1
370
    -2
100
AcDbBlockReference
  2
B-DIM
 10
217855.7116024332
 20
137118.318410901
 30
0.0
 41
30.0
 42
30.0
 43
30.0
  0
MTEXT
  5
F4ED
330
F48C
100
AcDbEntity
  8
0Wymiary-PL
 62
    10
100
AcDbMText
 10
217680.7116024332
 20
137198.318410901
 30
0.0
 40
80.0
 41
0.0
 71
     5
 72
     1
  1
\A1;350
  7
ROMANS
 73
     1
 44
1.0
1001
ACAD
1000
MTEXTBEGIN
1070
    73
1070
     1
1070
    44
1040
1.0
1070
    74
1070
     0
1000
MTEXTEND
  0
POINT
  5
F4EE
330
F48C
100
AcDbEntity
  8
DEFPOINTS
 62
     0
100
AcDbPoint
 10
217505.7116024333
 20
136467.5327194048
 30
0.0
  0
POINT
  5
F4EF
330
F48C
100
AcDbEntity
  8
DEFPOINTS
 62
     0
100
AcDbPoint
 10
217855.7116024332
 20
136467.532719405
 30
0.0
  0
POINT
  5
F4F0
330
F48C
100
AcDbEntity
  8
DEFPOINTS
 62
     0
100
AcDbPoint
 10
217855.7116024332
 20
137118.318410901
 30
0.0
  0
ENDBLK
  5
F495
330
F48C
100
AcDbEntity
  8
0
100
AcDbBlockEnd
  0
BLOCK
  5
F49F
330
F497
100
AcDbEntity
  8
0
100
AcDbBlockBegin
  2
*D68
 70
     1
 10
0.0
 20
0.0
 30
0.0
  3
*D68
  1

  0
LINE
  5
F4F1
330
F497
100
AcDbEntity
  8
0Wymiary-PL
 62
     1
370
    -2
100
AcDbLine
 10
217885.7116024333
 20
137118.318410901
 30
0.0
 11
218925.7116024332
 21
137118.318410901
 31
0.0
  0
INSERT
  5
F4F2
330
F497
100
AcDbEntity
  8
0Wymiary-PL
 62
     1
370
    -2
100
AcDbBlockReference
  2
B-DIM
 10
217855.7116024332
 20
137118.318410901
 30
0.0
 41
30.0
 42
30.0
 43
30.0
 50
180.0
  0
INSERT
  5
F4F3
330
F497
100
AcDbEntity
  8
0Wymiary-PL
 62
     1
370
    -2
100
AcDbBlockReference
  2
B-DIM
 10
218955.7116024333
 20
137118.318410901
 30
0.0
 41
30.0
 42
30.0
 43
30.0
  0
MTEXT
  5
F4F4
330
F497
100
AcDbEntity
  8
0Wymiary-PL
 62
    10
100
AcDbMText
 10
218405.7116024332
 20
137198.318410901
 30
0.0
 40
80.0
 41
0.0
 71
     5
 72
     1
  1
\A1;1100
  7
ROMANS
 73
     1
 44
1.0
1001
ACAD
1000
MTEXTBEGIN
1070
    73
1070
     1
1070
    44
1040
1.0
1070
    74
1070
     0
1000
MTEXTEND
  0
POINT
  5
F4F5
330
F497
100
AcDbEntity
  8
DEFPOINTS
 62
     0
100
AcDbPoint
 10
217855.7116024332
 20
136467.532719405
 30
0.0
  0
POINT
  5
F4F6
330
F497
100
AcDbEntity
  8
DEFPOINTS
 62
     0
100
AcDbPoint
 10
218955.7116024333
 20
136532.5327194048
 30
0.0
  0
POINT
  5
F4F7
330
F497
100
AcDbEntity
  8
DEFPOINTS
 62
     0
100
AcDbPoint
 10
218955.7116024333
 20
137118.318410901
 30
0.0
  0
ENDBLK
  5
F4A0
330
F497
100
AcDbEntity
  8
0
100
AcDbBlockEnd
  0
BLOCK
  5
F4B8
330
F4B0
100
AcDbEntity
  8
0
100
AcDbBlockBegin
  2
*D69
 70
     1
 10
0.0
 20
0.0
 30
0.0
  3
*D69
  1

  0
LINE
  5
F4F8
330
F4B0
100
AcDbEntity
  8
0Wymiary-PL
 62
     1
370
    -2
100
AcDbLine
 10
217535.7116024333
 20
137332.903755979
 30
0.0
 11
218925.7116024332
 21
137332.903755979
 31
0.0
  0
INSERT
  5
F4F9
330
F4B0
100
AcDbEntity
  8
0Wymiary-PL
 62
     1
370
    -2
100
AcDbBlockReference
  2
B-DIM
 10
217505.7116024333
 20
137332.903755979
 30
0.0
 41
30.0
 42
30.0
 43
30.0
 50
180.0
  0
INSERT
  5
F4FA
330
F4B0
100
AcDbEntity
  8
0Wymiary-PL
 62
     1
370
    -2
100
AcDbBlockReference
  2
B-DIM
 10
218955.7116024333
 20
137332.903755979
 30
0.0
 41
30.0
 42
30.0
 43
30.0
  0
MTEXT
  5
F4FB
330
F4B0
100
AcDbEntity
  8
0Wymiary-PL
 62
    10
100
AcDbMText
 10
218230.7116024333
 20
137412.903755979
 30
0.0
 40
80.0
 41
0.0
 71
     5
 72
     1
  1
\A1;1450
  7
ROMANS
 73
     1
 44
1.0
1001
ACAD
1000
MTEXTBEGIN
1070
    73
1070
     1
1070
    44
1040
1.0
1070
    74
1070
     0
1000
MTEXTEND
  0
POINT
  5
F4FC
330
F4B0
100
AcDbEntity
  8
DEFPOINTS
 62
     0
100
AcDbPoint
 10
217505.7116024333
 20
136467.5327194048
 30
0.0
  0
POINT
  5
F4FD
330
F4B0
100
AcDbEntity
  8
DEFPOINTS
 62
     0
100
AcDbPoint
 10
218955.7116024333
 20
136532.5327194048
 30
0.0
  0
POINT
  5
F4FE
330
F4B0
100
AcDbEntity
  8
DEFPOINTS
 62
     0
100
AcDbPoint
 10
218955.7116024333
 20
137332.903755979
 30
0.0
  0
ENDBLK
  5
F4B9
330
F4B0
100
AcDbEntity
  8
0
100
AcDbBlockEnd
  0
BLOCK
  5
F4C5
330
F4BB
100
AcDbEntity
  8
0
100
AcDbBlockBegin
  2
*D70
 70
     1
 10
0.0
 20
0.0
 30
0.0
  3
*D70
  1

  0
LINE
  5
F4BC
330
F4BB
100
AcDbEntity
  8
0Wymiary-PL
 62
     1
370
    -2
100
AcDbLine
 10
217330.4416251503
 20
136671.0875639014
 30
0.0
 11
217330.4416251503
 21
136701.0875639014
 31
0.0
  0
LINE
  5
F4BD
330
F4BB
100
AcDbEntity
  8
0Wymiary-PL
 62
     1
370
    -2
100
AcDbLine
 10
217330.4416251503
 20
136546.0875639016
 30
0.0
 11
217330.4416251503
 21
136516.0875639016
 31
0.0
  0
LINE
  5
F4BE
330
F4BB
100
AcDbEntity
  8
0Wymiary-PL
 62
     1
370
    -2
100
AcDbLine
 10
217330.4416251503
 20
136641.0875639014
 30
0.0
 11
217330.4416251503
 21
136576.0875639016
 31
0.0
  0
INSERT
  5
F4BF
330
F4BB
100
AcDbEntity
  8
0Wymiary-PL
 62
     1
370
    -2
100
AcDbBlockReference
  2
B-DIM
 10
217330.4416251503
 20
136641.0875639014
 30
0.0
 41
30.0
 42
30.0
 43
30.0
 50
270.0
  0
INSERT
  5
F4C0
330
F4BB
100
AcDbEntity
  8
0Wymiary-PL
 62
     1
370
    -2
100
AcDbBlockReference
  2
B-DIM
 10
217330.4416251503
 20
136576.0875639016
 30
0.0
 41
30.0
 42
30.0
 43
30.0
 50
90.0
  0
MTEXT
  5
F4C1
330
F4BB
100
AcDbEntity
  8
0Wymiary-PL
 62
    10
100
AcDbMText
 10
217250.4416251503
 20
136608.5875639015
 30
0.0
 40
80.0
 41
0.0
 71
     5
 72
     1
  1
\A1;65
  7
ROMANS
 11
0.0000000000000001
 21
1.0
 31
0.0
 73
     1
 44
1.0
1001
ACAD
1000
MTEXTBEGIN
1070
    73
1070
     1
1070
    44
1040
1.0
1070
    74
1070
     0
1000
MTEXTEND
  0
POINT
  5
F4C2
330
F4BB
100
AcDbEntity
  8
DEFPOINTS
 62
     0
100
AcDbPoint
 10
217855.7116024332
 20
136641.0875639014
 30
0.0
  0
POINT
  5
F4C3
330
F4BB
100
AcDbEntity
  8
DEFPOINTS
 62
     0
100
AcDbPoint
 10
217855.7116024332
 20
136576.0875639016
 30
0.0
  0
POINT
  5
F4C4
330
F4BB
100
AcDbEntity
  8
DEFPOINTS
 62
     0
100
AcDbPoint
 10
217330.4416251503
 20
136576.0875639016
 30
0.0
  0
ENDBLK
  5
F4C6
330
F4BB
100
AcDbEntity
  8
0
100
AcDbBlockEnd
  0
BLOCK
  5
F4D0
330
F4C8
100
AcDbEntity
  8
0
100
AcDbBlockBegin
  2
*D71
 70
     1
 10
0.0
 20
0.0
 30
0.0
  3
*D71
  1

  0
LINE
  5
F4C9
330
F4C8
100
AcDbEntity
  8
0Wymiary-PL
 62
     1
370
    -2
100
AcDbLine
 10
217330.4416251503
 20
136546.0875639016
 30
0.0
 11
217330.4416251503
 21
135936.0875639014
 31
0.0
  0
INSERT
  5
F4CA
330
F4C8
100
AcDbEntity
  8
0Wymiary-PL
 62
     1
370
    -2
100
AcDbBlockReference
  2
B-DIM
 10
217330.4416251503
 20
136576.0875639016
 30
0.0
 41
30.0
 42
30.0
 43
30.0
 50
90.0
  0
INSERT
  5
F4CB
330
F4C8
100
AcDbEntity
  8
0Wymiary-PL
 62
     1
370
    -2
100
AcDbBlockReference
  2
B-DIM
 10
217330.4416251503
 20
135906.0875639014
 30
0.0
 41
30.0
 42
30.0
 43
30.0
 50
270.0
  0
MTEXT
  5
F4CC
330
F4C8
100
AcDbEntity
  8
0Wymiary-PL
 62
    10
100
AcDbMText
 10
217250.4416251503
 20
136241.0875639015
 30
0.0
 40
80.0
 41
0.0
 71
     5
 72
     1
  1
\A1;670
  7
ROMANS
 11
0.0000000000000001
 21
1.0
 31
0.0
 73
     1
 44
1.0
1001
ACAD
1000
MTEXTBEGIN
1070
    73
1070
     1
1070
    44
1040
1.0
1070
    74
1070
     0
1000
MTEXTEND
  0
POINT
  5
F4CD
330
F4C8
100
AcDbEntity
  8
DEFPOINTS
 62
     0
100
AcDbPoint
 10
217855.7116024332
 20
136576.0875639016
 30
0.0
  0
POINT
  5
F4CE
330
F4C8
100
AcDbEntity
  8
DEFPOINTS
 62
     0
100
AcDbPoint
 10
217505.7116024333
 20
135906.0875639014
 30
0.0
  0
POINT
  5
F4CF
330
F4C8
100
AcDbEntity
  8
DEFPOINTS
 62
     0
100
AcDbPoint
 10
217330.4416251503
 20
135906.0875639014
 30
0.0
  0
ENDBLK
  5
F4D1
330
F4C8
100
AcDbEntity
  8
0
100
AcDbBlockEnd
  0
BLOCK
  5
F4DD
330
F4D3
100
AcDbEntity
  8
0
100
AcDbBlockBegin
  2
*D72
 70
     1
 10
0.0
 20
0.0
 30
0.0
  3
*D72
  1

  0
LINE
  5
F4D4
330
F4D3
100
AcDbEntity
  8
0Wymiary-PL
 62
     1
370
    -2
100
AcDbLine
 10
217330.4416251503
 20
135936.0875639014
 30
0.0
 11
217330.4416251503
 21
135966.0875639014
 31
0.0
  0
LINE
  5
F4D5
330
F4D3
100
AcDbEntity
  8
0Wymiary-PL
 62
     1
370
    -2
100
AcDbLine
 10
217330.4416251503
 20
135811.0875639014
 30
0.0
 11
217330.4416251503
 21
135781.0875639014
 31
0.0
  0
LINE
  5
F4D6
330
F4D3
100
AcDbEntity
  8
0Wymiary-PL
 62
     1
370
    -2
100
AcDbLine
 10
217330.4416251503
 20
135906.0875639014
 30
0.0
 11
217330.4416251503
 21
135841.0875639014
 31
0.0
  0
INSERT
  5
F4D7
330
F4D3
100
AcDbEntity
  8
0Wymiary-PL
 62
     1
370
    -2
100
AcDbBlockReference
  2
B-DIM
 10
217330.4416251503
 20
135906.0875639014
 30
0.0
 41
30.0
 42
30.0
 43
30.0
 50
270.0
  0
INSERT
  5
F4D8
330
F4D3
100
AcDbEntity
  8
0Wymiary-PL
 62
     1
370
    -2
100
AcDbBlockReference
  2
B-DIM
 10
217330.4416251503
 20
135841.0875639014
 30
0.0
 41
30.0
 42
30.0
 43
30.0
 50
90.0
  0
MTEXT
  5
F4D9
330
F4D3
100
AcDbEntity
  8
0Wymiary-PL
 62
    10
100
AcDbMText
 10
217250.4416251503
 20
135873.5875639015
 30
0.0
 40
80.0
 41
0.0
 71
     5
 72
     1
  1
\A1;65
  7
ROMANS
 11
0.0000000000000001
 21
1.0
 31
0.0
 73
     1
 44
1.0
1001
ACAD
1000
MTEXTBEGIN
1070
    73
1070
     1
1070
    44
1040
1.0
1070
    74
1070
     0
1000
MTEXTEND
  0
POINT
  5
F4DA
330
F4D3
100
AcDbEntity
  8
DEFPOINTS
 62
     0
100
AcDbPoint
 10
217505.7116024333
 20
135906.0875639014
 30
0.0
  0
POINT
  5
F4DB
330
F4D3
100
AcDbEntity
  8
DEFPOINTS
 62
     0
100
AcDbPoint
 10
217855.7116024332
 20
135841.0875639014
 30
0.0
  0
POINT
  5
F4DC
330
F4D3
100
AcDbEntity
  8
DEFPOINTS
 62
     0
100
AcDbPoint
 10
217330.4416251503
 20
135841.0875639014
 30
0.0
  0
ENDBLK
  5
F4DE
330
F4D3
100
AcDbEntity
  8
0
100
AcDbBlockEnd
  0
BLOCK
  5
F4E8
330
F4E0
100
AcDbEntity
  8
0
100
AcDbBlockBegin
  2
*D73
 70
     1
 10
0.0
 20
0.0
 30
0.0
  3
*D73
  1

  0
LINE
  5
F4E1
330
F4E0
100
AcDbEntity
  8
0Wymiary-PL
 62
     1
370
    -2
100
AcDbLine
 10
217067.7383349338
 20
135871.0875639014
 30
0.0
 11
217067.7383349338
 21
136611.0875639014
 31
0.0
  0
INSERT
  5
F4E2
330
F4E0
100
AcDbEntity
  8
0Wymiary-PL
 62
     1
370
    -2
100
AcDbBlockReference
  2
B-DIM
 10
217067.7383349338
 20
135841.0875639014
 30
0.0
 41
30.0
 42
30.0
 43
30.0
 50
270.0
  0
INSERT
  5
F4E3
330
F4E0
100
AcDbEntity
  8
0Wymiary-PL
 62
     1
370
    -2
100
AcDbBlockReference
  2
B-DIM
 10
217067.7383349338
 20
136641.0875639014
 30
0.0
 41
30.0
 42
30.0
 43
30.0
 50
90.0
  0
MTEXT
  5
F4E4
330
F4E0
100
AcDbEntity
  8
0Wymiary-PL
 62
    10
100
AcDbMText
 10
216987.7383349338
 20
136241.0875639014
 30
0.0
 40
80.0
 41
0.0
 71
     5
 72
     1
  1
\A1;800
  7
ROMANS
 11
0.0000000000000001
 21
1.0
 31
0.0
 73
     1
 44
1.0
1001
ACAD
1000
MTEXTBEGIN
1070
    73
1070
     1
1070
    44
1040
1.0
1070
    74
1070
     0
1000
MTEXTEND
  0
POINT
  5
F4E5
330
F4E0
100
AcDbEntity
  8
DEFPOINTS
 62
     0
100
AcDbPoint
 10
217855.7116024332
 20
135841.0875639014
 30
0.0
  0
POINT
  5
F4E6
330
F4E0
100
AcDbEntity
  8
DEFPOINTS
 62
     0
100
AcDbPoint
 10
217855.7116024332
 20
136641.0875639014
 30
0.0
  0
POINT
  5
F4E7
330
F4E0
100
AcDbEntity
  8
DEFPOINTS
 62
     0
100
AcDbPoint
 10
217067.7383349338
 20
136641.0875639014
 30
0.0
  0
ENDBLK
  5
F4E9
330
F4E0
100
AcDbEntity
  8
0
100
AcDbBlockEnd
  0
BLOCK
  5
F641
330
F639
100
AcDbEntity
  8
0
100
AcDbBlockBegin
  2
*D74
 70
     1
 10
0.0
 20
0.0
 30
0.0
  3
*D74
  1

  0
LINE
  5
F683
330
F639
100
AcDbEntity
  8
0Wymiary-PL
 62
     1
370
    -2
100
AcDbLine
 10
223264.0668873118
 20
137118.318410901
 30
0.0
 11
222974.0668873118
 21
137118.318410901
 31
0.0
  0
INSERT
  5
F684
330
F639
100
AcDbEntity
  8
0Wymiary-PL
 62
     1
370
    -2
100
AcDbBlockReference
  2
B-DIM
 10
223294.0668873118
 20
137118.318410901
 30
0.0
 41
30.0
 42
30.0
 43
30.0
  0
INSERT
  5
F685
330
F639
100
AcDbEntity
  8
0Wymiary-PL
 62
     1
370
    -2
100
AcDbBlockReference
  2
B-DIM
 10
222944.0668873118
 20
137118.318410901
 30
0.0
 41
30.0
 42
30.0
 43
30.0
 50
180.0
  0
MTEXT
  5
F686
330
F639
100
AcDbEntity
  8
0Wymiary-PL
 62
    10
100
AcDbMText
 10
223119.0668873118
 20
137198.318410901
 30
0.0
 40
80.0
 41
0.0
 71
     5
 72
     1
  1
\A1;350
  7
ROMANS
 73
     1
 44
1.0
1001
ACAD
1000
MTEXTBEGIN
1070
    73
1070
     1
1070
    44
1040
1.0
1070
    74
1070
     0
1000
MTEXTEND
  0
POINT
  5
F687
330
F639
100
AcDbEntity
  8
DEFPOINTS
 62
     0
100
AcDbPoint
 10
223294.0668873118
 20
136467.5327194048
 30
0.0
  0
POINT
  5
F688
330
F639
100
AcDbEntity
  8
DEFPOINTS
 62
     0
100
AcDbPoint
 10
222944.0668873118
 20
136467.532719405
 30
0.0
  0
POINT
  5
F689
330
F639
100
AcDbEntity
  8
DEFPOINTS
 62
     0
100
AcDbPoint
 10
222944.0668873118
 20
137118.318410901
 30
0.0
  0
ENDBLK
  5
F642
330
F639
100
AcDbEntity
  8
0
100
AcDbBlockEnd
  0
BLOCK
  5
F64B
330
F643
100
AcDbEntity
  8
0
100
AcDbBlockBegin
  2
*D75
 70
     1
 10
0.0
 20
0.0
 30
0.0
  3
*D75
  1

  0
LINE
  5
F68A
330
F643
100
AcDbEntity
  8
0Wymiary-PL
 62
     1
370
    -2
100
AcDbLine
 10
222914.0668873118
 20
137118.318410901
 30
0.0
 11
221874.0668873118
 21
137118.318410901
 31
0.0
  0
INSERT
  5
F68B
330
F643
100
AcDbEntity
  8
0Wymiary-PL
 62
     1
370
    -2
100
AcDbBlockReference
  2
B-DIM
 10
222944.0668873118
 20
137118.318410901
 30
0.0
 41
30.0
 42
30.0
 43
30.0
  0
INSERT
  5
F68C
330
F643
100
AcDbEntity
  8
0Wymiary-PL
 62
     1
370
    -2
100
AcDbBlockReference
  2
B-DIM
 10
221844.0668873118
 20
137118.318410901
 30
0.0
 41
30.0
 42
30.0
 43
30.0
 50
180.0
  0
MTEXT
  5
F68D
330
F643
100
AcDbEntity
  8
0Wymiary-PL
 62
    10
100
AcDbMText
 10
222394.0668873118
 20
137198.318410901
 30
0.0
 40
80.0
 41
0.0
 71
     5
 72
     1
  1
\A1;1100
  7
ROMANS
 73
     1
 44
1.0
1001
ACAD
1000
MTEXTBEGIN
1070
    73
1070
     1
1070
    44
1040
1.0
1070
    74
1070
     0
1000
MTEXTEND
  0
POINT
  5
F68E
330
F643
100
AcDbEntity
  8
DEFPOINTS
 62
     0
100
AcDbPoint
 10
222944.0668873118
 20
136467.532719405
 30
0.0
  0
POINT
  5
F68F
330
F643
100
AcDbEntity
  8
DEFPOINTS
 62
     0
100
AcDbPoint
 10
221844.0668873118
 20
136532.5327194048
 30
0.0
  0
POINT
  5
F690
330
F643
100
AcDbEntity
  8
DEFPOINTS
 62
     0
100
AcDbPoint
 10
221844.0668873118
 20
137118.318410901
 30
0.0
  0
ENDBLK
  5
F64C
330
F643
100
AcDbEntity
  8
0
100
AcDbBlockEnd
  0
BLOCK
  5
F655
330
F64D
100
AcDbEntity
  8
0
100
AcDbBlockBegin
  2
*D76
 70
     1
 10
0.0
 20
0.0
 30
0.0
  3
*D76
  1

  0
LINE
  5
F691
330
F64D
100
AcDbEntity
  8
0Wymiary-PL
 62
     1
370
    -2
100
AcDbLine
 10
223264.0668873118
 20
137332.903755979
 30
0.0
 11
221874.0668873118
 21
137332.903755979
 31
0.0
  0
INSERT
  5
F692
330
F64D
100
AcDbEntity
  8
0Wymiary-PL
 62
     1
370
    -2
100
AcDbBlockReference
  2
B-DIM
 10
223294.0668873118
 20
137332.903755979
 30
0.0
 41
30.0
 42
30.0
 43
30.0
  0
INSERT
  5
F693
330
F64D
100
AcDbEntity
  8
0Wymiary-PL
 62
     1
370
    -2
100
AcDbBlockReference
  2
B-DIM
 10
221844.0668873118
 20
137332.903755979
 30
0.0
 41
30.0
 42
30.0
 43
30.0
 50
180.0
  0
MTEXT
  5
F694
330
F64D
100
AcDbEntity
  8
0Wymiary-PL
 62
    10
100
AcDbMText
 10
222569.0668873118
 20
137412.903755979
 30
0.0
 40
80.0
 41
0.0
 71
     5
 72
     1
  1
\A1;1450
  7
ROMANS
 73
     1
 44
1.0
1001
ACAD
1000
MTEXTBEGIN
1070
    73
1070
     1
1070
    44
1040
1.0
1070
    74
1070
     0
1000
MTEXTEND
  0
POINT
  5
F695
330
F64D
100
AcDbEntity
  8
DEFPOINTS
 62
     0
100
AcDbPoint
 10
223294.0668873118
 20
136467.5327194048
 30
0.0
  0
POINT
  5
F696
330
F64D
100
AcDbEntity
  8
DEFPOINTS
 62
     0
100
AcDbPoint
 10
221844.0668873118
 20
136532.5327194048
 30
0.0
  0
POINT
  5
F697
330
F64D
100
AcDbEntity
  8
DEFPOINTS
 62
     0
100
AcDbPoint
 10
221844.0668873118
 20
137332.903755979
 30
0.0
  0
ENDBLK
  5
F656
330
F64D
100
AcDbEntity
  8
0
100
AcDbBlockEnd
  0
BLOCK
  5
F661
330
F657
100
AcDbEntity
  8
0
100
AcDbBlockBegin
  2
*D77
 70
     1
 10
0.0
 20
0.0
 30
0.0
  3
*D77
  1

  0
LINE
  5
F6B8
330
F657
100
AcDbEntity
  8
0Wymiary-PL
 62
     1
370
    -2
100
AcDbLine
 10
223540.2126043241
 20
136671.0875639014
 30
0.0
 11
223540.2126043241
 21
136701.0875639014
 31
0.0
  0
LINE
  5
F6B9
330
F657
100
AcDbEntity
  8
0Wymiary-PL
 62
     1
370
    -2
100
AcDbLine
 10
223540.2126043241
 20
136546.0875639016
 30
0.0
 11
223540.2126043241
 21
136516.0875639016
 31
0.0
  0
LINE
  5
F6BA
330
F657
100
AcDbEntity
  8
0Wymiary-PL
 62
     1
370
    -2
100
AcDbLine
 10
223540.2126043241
 20
136641.0875639014
 30
0.0
 11
223540.2126043241
 21
136576.0875639016
 31
0.0
  0
INSERT
  5
F6BB
330
F657
100
AcDbEntity
  8
0Wymiary-PL
 62
     1
370
    -2
100
AcDbBlockReference
  2
B-DIM
 10
223540.2126043241
 20
136641.0875639014
 30
0.0
 41
30.0
 42
30.0
 43
30.0
 50
270.0
  0
INSERT
  5
F6BC
330
F657
100
AcDbEntity
  8
0Wymiary-PL
 62
     1
370
    -2
100
AcDbBlockReference
  2
B-DIM
 10
223540.2126043241
 20
136576.0875639016
 30
0.0
 41
30.0
 42
30.0
 43
30.0
 50
90.0
  0
MTEXT
  5
F6BD
330
F657
100
AcDbEntity
  8
0Wymiary-PL
 62
    10
100
AcDbMText
 10
223460.212604324
 20
136608.5875639015
 30
0.0
 40
80.0
 41
0.0
 71
     5
 72
     1
  1
\A1;65
  7
ROMANS
 11
0.0000000000000001
 21
1.0
 31
0.0
 73
     1
 44
1.0
1001
ACAD
1000
MTEXTBEGIN
1070
    73
1070
     1
1070
    44
1040
1.0
1070
    74
1070
     0
1000
MTEXTEND
  0
POINT
  5
F6BE
330
F657
100
AcDbEntity
  8
DEFPOINTS
 62
     0
100
AcDbPoint
 10
223014.9426270411
 20
136641.0875639014
 30
0.0
  0
POINT
  5
F6BF
330
F657
100
AcDbEntity
  8
DEFPOINTS
 62
     0
100
AcDbPoint
 10
223014.9426270411
 20
136576.0875639016
 30
0.0
  0
POINT
  5
F6C0
330
F657
100
AcDbEntity
  8
DEFPOINTS
 62
     0
100
AcDbPoint
 10
223540.2126043241
 20
136576.0875639016
 30
0.0
  0
ENDBLK
  5
F662
330
F657
100
AcDbEntity
  8
0
100
AcDbBlockEnd
  0
BLOCK
  5
F66B
330
F663
100
AcDbEntity
  8
0
100
AcDbBlockBegin
  2
*D78
 70
     1
 10
0.0
 20
0.0
 30
0.0
  3
*D78
  1

  0
LINE
  5
F6C1
330
F663
100
AcDbEntity
  8
0Wymiary-PL
 62
     1
370
    -2
100
AcDbLine
 10
223540.2126043241
 20
136546.0875639016
 30
0.0
 11
223540.2126043241
 21
135936.0875639014
 31
0.0
  0
INSERT
  5
F6C2
330
F663
100
AcDbEntity
  8
0Wymiary-PL
 62
     1
370
    -2
100
AcDbBlockReference
  2
B-DIM
 10
223540.2126043241
 20
136576.0875639016
 30
0.0
 41
30.0
 42
30.0
 43
30.0
 50
90.0
  0
INSERT
  5
F6C3
330
F663
100
AcDbEntity
  8
0Wymiary-PL
 62
     1
370
    -2
100
AcDbBlockReference
  2
B-DIM
 10
223540.2126043241
 20
135906.0875639014
 30
0.0
 41
30.0
 42
30.0
 43
30.0
 50
270.0
  0
MTEXT
  5
F6C4
330
F663
100
AcDbEntity
  8
0Wymiary-PL
 62
    10
100
AcDbMText
 10
223460.212604324
 20
136241.0875639015
 30
0.0
 40
80.0
 41
0.0
 71
     5
 72
     1
  1
\A1;670
  7
ROMANS
 11
0.0000000000000001
 21
1.0
 31
0.0
 73
     1
 44
1.0
1001
ACAD
1000
MTEXTBEGIN
1070
    73
1070
     1
1070
    44
1040
1.0
1070
    74
1070
     0
1000
MTEXTEND
  0
POINT
  5
F6C5
330
F663
100
AcDbEntity
  8
DEFPOINTS
 62
     0
100
AcDbPoint
 10
223014.9426270411
 20
136576.0875639016
 30
0.0
  0
POINT
  5
F6C6
330
F663
100
AcDbEntity
  8
DEFPOINTS
 62
     0
100
AcDbPoint
 10
223364.9426270411
 20
135906.0875639014
 30
0.0
  0
POINT
  5
F6C7
330
F663
100
AcDbEntity
  8
DEFPOINTS
 62
     0
100
AcDbPoint
 10
223540.2126043241
 20
135906.0875639014
 30
0.0
  0
ENDBLK
  5
F66C
330
F663
100
AcDbEntity
  8
0
100
AcDbBlockEnd
  0
BLOCK
  5
F677
330
F66D
100
AcDbEntity
  8
0
100
AcDbBlockBegin
  2
*D79
 70
     1
 10
0.0
 20
0.0
 30
0.0
  3
*D79
  1

  0
LINE
  5
F6C8
330
F66D
100
AcDbEntity
  8
0Wymiary-PL
 62
     1
370
    -2
100
AcDbLine
 10
223540.2126043241
 20
135936.0875639014
 30
0.0
 11
223540.2126043241
 21
135966.0875639014
 31
0.0
  0
LINE
  5
F6C9
330
F66D
100
AcDbEntity
  8
0Wymiary-PL
 62
     1
370
    -2
100
AcDbLine
 10
223540.2126043241
 20
135811.0875639014
 30
0.0
 11
223540.2126043241
 21
135781.0875639014
 31
0.0
  0
LINE
  5
F6CA
330
F66D
100
AcDbEntity
  8
0Wymiary-PL
 62
     1
370
    -2
100
AcDbLine
 10
223540.2126043241
 20
135906.0875639014
 30
0.0
 11
223540.2126043241
 21
135841.0875639014
 31
0.0
  0
INSERT
  5
F6CB
330
F66D
100
AcDbEntity
  8
0Wymiary-PL
 62
     1
370
    -2
100
AcDbBlockReference
  2
B-DIM
 10
223540.2126043241
 20
135906.0875639014
 30
0.0
 41
30.0
 42
30.0
 43
30.0
 50
270.0
  0
INSERT
  5
F6CC
330
F66D
100
AcDbEntity
  8
0Wymiary-PL
 62
     1
370
    -2
100
AcDbBlockReference
  2
B-DIM
 10
223540.2126043241
 20
135841.0875639014
 30
0.0
 41
30.0
 42
30.0
 43
30.0
 50
90.0
  0
MTEXT
  5
F6CD
330
F66D
100
AcDbEntity
  8
0Wymiary-PL
 62
    10
100
AcDbMText
 10
223460.212604324
 20
135873.5875639015
 30
0.0
 40
80.0
 41
0.0
 71
     5
 72
     1
  1
\A1;65
  7
ROMANS
 11
0.0000000000000001
 21
1.0
 31
0.0
 73
     1
 44
1.0
1001
ACAD
1000
MTEXTBEGIN
1070
    73
1070
     1
1070
    44
1040
1.0
1070
    74
1070
     0
1000
MTEXTEND
  0
POINT
  5
F6CE
330
F66D
100
AcDbEntity
  8
DEFPOINTS
 62
     0
100
AcDbPoint
 10
223364.9426270411
 20
135906.0875639014
 30
0.0
  0
POINT
  5
F6CF
330
F66D
100
AcDbEntity
  8
DEFPOINTS
 62
     0
100
AcDbPoint
 10
223014.9426270411
 20
135841.0875639014
 30
0.0
  0
POINT
  5
F6D0
330
F66D
100
AcDbEntity
  8
DEFPOINTS
 62
     0
100
AcDbPoint
 10
223540.2126043241
 20
135841.0875639014
 30
0.0
  0
ENDBLK
  5
F678
330
F66D
100
AcDbEntity
  8
0
100
AcDbBlockEnd
  0
BLOCK
  5
F681
330
F679
100
AcDbEntity
  8
0
100
AcDbBlockBegin
  2
*D80
 70
     1
 10
0.0
 20
0.0
 30
0.0
  3
*D80
  1

  0
LINE
  5
F6D1
330
F679
100
AcDbEntity
  8
0Wymiary-PL
 62
     1
370
    -2
100
AcDbLine
 10
223802.9158945405
 20
135871.0875639014
 30
0.0
 11
223802.9158945405
 21
136611.0875639014
 31
0.0
  0
INSERT
  5
F6D2
330
F679
100
AcDbEntity
  8
0Wymiary-PL
 62
     1
370
    -2
100
AcDbBlockReference
  2
B-DIM
 10
223802.9158945405
 20
135841.0875639014
 30
0.0
 41
30.0
 42
30.0
 43
30.0
 50
270.0
  0
INSERT
  5
F6D3
330
F679
100
AcDbEntity
  8
0Wymiary-PL
 62
     1
370
    -2
100
AcDbBlockReference
  2
B-DIM
 10
223802.9158945405
 20
136641.0875639014
 30
0.0
 41
30.0
 42
30.0
 43
30.0
 50
90.0
  0
MTEXT
  5
F6D4
330
F679
100
AcDbEntity
  8
0Wymiary-PL
 62
    10
100
AcDbMText
 10
223722.9158945405
 20
136241.0875639014
 30
0.0
 40
80.0
 41
0.0
 71
     5
 72
     1
  1
\A1;800
  7
ROMANS
 11
0.0000000000000001
 21
1.0
 31
0.0
 73
     1
 44
1.0
1001
ACAD
1000
MTEXTBEGIN
1070
    73
1070
     1
1070
    44
1040
1.0
1070
    74
1070
     0
1000
MTEXTEND
  0
POINT
  5
F6D5
330
F679
100
AcDbEntity
  8
DEFPOINTS
 62
     0
100
AcDbPoint
 10
223014.9426270411
 20
135841.0875639014
 30
0.0
  0
POINT
  5
F6D6
330
F679
100
AcDbEntity
  8
DEFPOINTS
 62
     0
100
AcDbPoint
 10
223014.9426270411
 20
136641.0875639014
 30
0.0
  0
POINT
  5
F6D7
330
F679
100
AcDbEntity
  8
DEFPOINTS
 62
     0
100
AcDbPoint
 10
223802.9158945405
 20
136641.0875639014
 30
0.0
  0
ENDBLK
  5
F682
330
F679
100
AcDbEntity
  8
0
100
AcDbBlockEnd
  0
BLOCK
  5
F951
330
F949
100
AcDbEntity
  8
0
100
AcDbBlockBegin
  2
*D81
 70
     1
 10
0.0
 20
0.0
 30
0.0
  3
*D81
  1

  0
LINE
  5
F9DD
330
F949
100
AcDbEntity
  8
0Wymiary-PL
 62
     1
370
    -2
100
AcDbLine
 10
236018.8931305562
 20
137118.318410901
 30
0.0
 11
236308.8931305562
 21
137118.318410901
 31
0.0
  0
INSERT
  5
F9DE
330
F949
100
AcDbEntity
  8
0Wymiary-PL
 62
     1
370
    -2
100
AcDbBlockReference
  2
B-DIM
 10
235988.8931305562
 20
137118.318410901
 30
0.0
 41
30.0
 42
30.0
 43
30.0
 50
180.0
  0
INSERT
  5
F9DF
330
F949
100
AcDbEntity
  8
0Wymiary-PL
 62
     1
370
    -2
100
AcDbBlockReference
  2
B-DIM
 10
236338.8931305562
 20
137118.318410901
 30
0.0
 41
30.0
 42
30.0
 43
30.0
  0
MTEXT
  5
F9E0
330
F949
100
AcDbEntity
  8
0Wymiary-PL
 62
    10
100
AcDbMText
 10
236163.8931305562
 20
137198.318410901
 30
0.0
 40
80.0
 41
0.0
 71
     5
 72
     1
  1
\A1;350
  7
ROMANS
 73
     1
 44
1.0
1001
ACAD
1000
MTEXTBEGIN
1070
    73
1070
     1
1070
    44
1040
1.0
1070
    74
1070
     0
1000
MTEXTEND
  0
POINT
  5
F9E1
330
F949
100
AcDbEntity
  8
DEFPOINTS
 62
     0
100
AcDbPoint
 10
235988.8931305562
 20
136467.5327194048
 30
0.0
  0
POINT
  5
F9E2
330
F949
100
AcDbEntity
  8
DEFPOINTS
 62
     0
100
AcDbPoint
 10
236338.8931305562
 20
136467.532719405
 30
0.0
  0
POINT
  5
F9E3
330
F949
100
AcDbEntity
  8
DEFPOINTS
 62
     0
100
AcDbPoint
 10
236338.8931305562
 20
137118.318410901
 30
0.0
  0
ENDBLK
  5
F952
330
F949
100
AcDbEntity
  8
0
100
AcDbBlockEnd
  0
BLOCK
  5
F95B
330
F953
100
AcDbEntity
  8
0
100
AcDbBlockBegin
  2
*D82
 70
     1
 10
0.0
 20
0.0
 30
0.0
  3
*D82
  1

  0
LINE
  5
F9E4
330
F953
100
AcDbEntity
  8
0Wymiary-PL
 62
     1
370
    -2
100
AcDbLine
 10
236368.8931305562
 20
137118.318410901
 30
0.0
 11
237408.8931305562
 21
137118.318410901
 31
0.0
  0
INSERT
  5
F9E5
330
F953
100
AcDbEntity
  8
0Wymiary-PL
 62
     1
370
    -2
100
AcDbBlockReference
  2
B-DIM
 10
236338.8931305562
 20
137118.318410901
 30
0.0
 41
30.0
 42
30.0
 43
30.0
 50
180.0
  0
INSERT
  5
F9E6
330
F953
100
AcDbEntity
  8
0Wymiary-PL
 62
     1
370
    -2
100
AcDbBlockReference
  2
B-DIM
 10
237438.8931305562
 20
137118.318410901
 30
0.0
 41
30.0
 42
30.0
 43
30.0
  0
MTEXT
  5
F9E7
330
F953
100
AcDbEntity
  8
0Wymiary-PL
 62
    10
100
AcDbMText
 10
236888.8931305562
 20
137198.318410901
 30
0.0
 40
80.0
 41
0.0
 71
     5
 72
     1
  1
\A1;1100
  7
ROMANS
 73
     1
 44
1.0
1001
ACAD
1000
MTEXTBEGIN
1070
    73
1070
     1
1070
    44
1040
1.0
1070
    74
1070
     0
1000
MTEXTEND
  0
POINT
  5
F9E8
330
F953
100
AcDbEntity
  8
DEFPOINTS
 62
     0
100
AcDbPoint
 10
236338.8931305562
 20
136467.532719405
 30
0.0
  0
POINT
  5
F9E9
330
F953
100
AcDbEntity
  8
DEFPOINTS
 62
     0
100
AcDbPoint
 10
237438.8931305562
 20
136532.5327194048
 30
0.0
  0
POINT
  5
F9EA
330
F953
100
AcDbEntity
  8
DEFPOINTS
 62
     0
100
AcDbPoint
 10
237438.8931305562
 20
137118.318410901
 30
0.0
  0
ENDBLK
  5
F95C
330
F953
100
AcDbEntity
  8
0
100
AcDbBlockEnd
  0
BLOCK
  5
F965
330
F95D
100
AcDbEntity
  8
0
100
AcDbBlockBegin
  2
*D83
 70
     1
 10
0.0
 20
0.0
 30
0.0
  3
*D83
  1

  0
LINE
  5
F9EB
330
F95D
100
AcDbEntity
  8
0Wymiary-PL
 62
     1
370
    -2
100
AcDbLine
 10
236018.8931305562
 20
137332.903755979
 30
0.0
 11
237408.8931305562
 21
137332.903755979
 31
0.0
  0
INSERT
  5
F9EC
330
F95D
100
AcDbEntity
  8
0Wymiary-PL
 62
     1
370
    -2
100
AcDbBlockReference
  2
B-DIM
 10
235988.8931305562
 20
137332.903755979
 30
0.0
 41
30.0
 42
30.0
 43
30.0
 50
180.0
  0
INSERT
  5
F9ED
330
F95D
100
AcDbEntity
  8
0Wymiary-PL
 62
     1
370
    -2
100
AcDbBlockReference
  2
B-DIM
 10
237438.8931305562
 20
137332.903755979
 30
0.0
 41
30.0
 42
30.0
 43
30.0
  0
MTEXT
  5
F9EE
330
F95D
100
AcDbEntity
  8
0Wymiary-PL
 62
    10
100
AcDbMText
 10
236713.8931305562
 20
137412.903755979
 30
0.0
 40
80.0
 41
0.0
 71
     5
 72
     1
  1
\A1;1450
  7
ROMANS
 73
     1
 44
1.0
1001
ACAD
1000
MTEXTBEGIN
1070
    73
1070
     1
1070
    44
1040
1.0
1070
    74
1070
     0
1000
MTEXTEND
  0
POINT
  5
F9EF
330
F95D
100
AcDbEntity
  8
DEFPOINTS
 62
     0
100
AcDbPoint
 10
235988.8931305562
 20
136467.5327194048
 30
0.0
  0
POINT
  5
F9F0
330
F95D
100
AcDbEntity
  8
DEFPOINTS
 62
     0
100
AcDbPoint
 10
237438.8931305562
 20
136532.5327194048
 30
0.0
  0
POINT
  5
F9F1
330
F95D
100
AcDbEntity
  8
DEFPOINTS
 62
     0
100
AcDbPoint
 10
237438.8931305562
 20
137332.903755979
 30
0.0
  0
ENDBLK
  5
F966
330
F95D
100
AcDbEntity
  8
0
100
AcDbBlockEnd
  0
BLOCK
  5
F971
330
F967
100
AcDbEntity
  8
0
100
AcDbBlockBegin
  2
*D84
 70
     1
 10
0.0
 20
0.0
 30
0.0
  3
*D84
  1

  0
LINE
  5
F9F2
330
F967
100
AcDbEntity
  8
0Wymiary-PL
 62
     1
370
    -2
100
AcDbLine
 10
235813.6231532732
 20
136671.0875639014
 30
0.0
 11
235813.6231532732
 21
136701.0875639014
 31
0.0
  0
LINE
  5
F9F3
330
F967
100
AcDbEntity
  8
0Wymiary-PL
 62
     1
370
    -2
100
AcDbLine
 10
235813.6231532732
 20
136546.0875639016
 30
0.0
 11
235813.6231532732
 21
136516.0875639016
 31
0.0
  0
LINE
  5
F9F4
330
F967
100
AcDbEntity
  8
0Wymiary-PL
 62
     1
370
    -2
100
AcDbLine
 10
235813.6231532732
 20
136641.0875639014
 30
0.0
 11
235813.6231532732
 21
136576.0875639016
 31
0.0
  0
INSERT
  5
F9F5
330
F967
100
AcDbEntity
  8
0Wymiary-PL
 62
     1
370
    -2
100
AcDbBlockReference
  2
B-DIM
 10
235813.6231532732
 20
136641.0875639014
 30
0.0
 41
30.0
 42
30.0
 43
30.0
 50
270.0
  0
INSERT
  5
F9F6
330
F967
100
AcDbEntity
  8
0Wymiary-PL
 62
     1
370
    -2
100
AcDbBlockReference
  2
B-DIM
 10
235813.6231532732
 20
136576.0875639016
 30
0.0
 41
30.0
 42
30.0
 43
30.0
 50
90.0
  0
MTEXT
  5
F9F7
330
F967
100
AcDbEntity
  8
0Wymiary-PL
 62
    10
100
AcDbMText
 10
235733.6231532732
 20
136608.5875639015
 30
0.0
 40
80.0
 41
0.0
 71
     5
 72
     1
  1
\A1;65
  7
ROMANS
 11
0.0000000000000001
 21
1.0
 31
0.0
 73
     1
 44
1.0
1001
ACAD
1000
MTEXTBEGIN
1070
    73
1070
     1
1070
    44
1040
1.0
1070
    74
1070
     0
1000
MTEXTEND
  0
POINT
  5
F9F8
330
F967
100
AcDbEntity
  8
DEFPOINTS
 62
     0
100
AcDbPoint
 10
236338.8931305562
 20
136641.0875639014
 30
0.0
  0
POINT
  5
F9F9
330
F967
100
AcDbEntity
  8
DEFPOINTS
 62
     0
100
AcDbPoint
 10
236338.8931305562
 20
136576.0875639016
 30
0.0
  0
POINT
  5
F9FA
330
F967
100
AcDbEntity
  8
DEFPOINTS
 62
     0
100
AcDbPoint
 10
235813.6231532732
 20
136576.0875639016
 30
0.0
  0
ENDBLK
  5
F972
330
F967
100
AcDbEntity
  8
0
100
AcDbBlockEnd
  0
BLOCK
  5
F97B
330
F973
100
AcDbEntity
  8
0
100
AcDbBlockBegin
  2
*D85
 70
     1
 10
0.0
 20
0.0
 30
0.0
  3
*D85
  1

  0
LINE
  5
F9FB
330
F973
100
AcDbEntity
  8
0Wymiary-PL
 62
     1
370
    -2
100
AcDbLine
 10
235813.6231532732
 20
136546.0875639016
 30
0.0
 11
235813.6231532732
 21
135936.0875639014
 31
0.0
  0
INSERT
  5
F9FC
330
F973
100
AcDbEntity
  8
0Wymiary-PL
 62
     1
370
    -2
100
AcDbBlockReference
  2
B-DIM
 10
235813.6231532732
 20
136576.0875639016
 30
0.0
 41
30.0
 42
30.0
 43
30.0
 50
90.0
  0
INSERT
  5
F9FD
330
F973
100
AcDbEntity
  8
0Wymiary-PL
 62
     1
370
    -2
100
AcDbBlockReference
  2
B-DIM
 10
235813.6231532732
 20
135906.0875639014
 30
0.0
 41
30.0
 42
30.0
 43
30.0
 50
270.0
  0
MTEXT
  5
F9FE
330
F973
100
AcDbEntity
  8
0Wymiary-PL
 62
    10
100
AcDbMText
 10
235733.6231532732
 20
136241.0875639015
 30
0.0
 40
80.0
 41
0.0
 71
     5
 72
     1
  1
\A1;670
  7
ROMANS
 11
0.0000000000000001
 21
1.0
 31
0.0
 73
     1
 44
1.0
1001
ACAD
1000
MTEXTBEGIN
1070
    73
1070
     1
1070
    44
1040
1.0
1070
    74
1070
     0
1000
MTEXTEND
  0
POINT
  5
F9FF
330
F973
100
AcDbEntity
  8
DEFPOINTS
 62
     0
100
AcDbPoint
 10
236338.8931305562
 20
136576.0875639016
 30
0.0
  0
POINT
  5
FA00
330
F973
100
AcDbEntity
  8
DEFPOINTS
 62
     0
100
AcDbPoint
 10
235988.8931305562
 20
135906.0875639014
 30
0.0
  0
POINT
  5
FA01
330
F973
100
AcDbEntity
  8
DEFPOINTS
 62
     0
100
AcDbPoint
 10
235813.6231532732
 20
135906.0875639014
 30
0.0
  0
ENDBLK
  5
F97C
330
F973
100
AcDbEntity
  8
0
100
AcDbBlockEnd
  0
BLOCK
  5
F987
330
F97D
100
AcDbEntity
  8
0
100
AcDbBlockBegin
  2
*D86
 70
     1
 10
0.0
 20
0.0
 30
0.0
  3
*D86
  1

  0
LINE
  5
FA02
330
F97D
100
AcDbEntity
  8
0Wymiary-PL
 62
     1
370
    -2
100
AcDbLine
 10
235813.6231532732
 20
135936.0875639014
 30
0.0
 11
235813.6231532732
 21
135966.0875639014
 31
0.0
  0
LINE
  5
FA03
330
F97D
100
AcDbEntity
  8
0Wymiary-PL
 62
     1
370
    -2
100
AcDbLine
 10
235813.6231532732
 20
135811.0875639014
 30
0.0
 11
235813.6231532732
 21
135781.0875639014
 31
0.0
  0
LINE
  5
FA04
330
F97D
100
AcDbEntity
  8
0Wymiary-PL
 62
     1
370
    -2
100
AcDbLine
 10
235813.6231532732
 20
135906.0875639014
 30
0.0
 11
235813.6231532732
 21
135841.0875639014
 31
0.0
  0
INSERT
  5
FA05
330
F97D
100
AcDbEntity
  8
0Wymiary-PL
 62
     1
370
    -2
100
AcDbBlockReference
  2
B-DIM
 10
235813.6231532732
 20
135906.0875639014
 30
0.0
 41
30.0
 42
30.0
 43
30.0
 50
270.0
  0
INSERT
  5
FA06
330
F97D
100
AcDbEntity
  8
0Wymiary-PL
 62
     1
370
    -2
100
AcDbBlockReference
  2
B-DIM
 10
235813.6231532732
 20
135841.0875639014
 30
0.0
 41
30.0
 42
30.0
 43
30.0
 50
90.0
  0
MTEXT
  5
FA07
330
F97D
100
AcDbEntity
  8
0Wymiary-PL
 62
    10
100
AcDbMText
 10
235733.6231532732
 20
135873.5875639015
 30
0.0
 40
80.0
 41
0.0
 71
     5
 72
     1
  1
\A1;65
  7
ROMANS
 11
0.0000000000000001
 21
1.0
 31
0.0
 73
     1
 44
1.0
1001
ACAD
1000
MTEXTBEGIN
1070
    73
1070
     1
1070
    44
1040
1.0
1070
    74
1070
     0
1000
MTEXTEND
  0
POINT
  5
FA08
330
F97D
100
AcDbEntity
  8
DEFPOINTS
 62
     0
100
AcDbPoint
 10
235988.8931305562
 20
135906.0875639014
 30
0.0
  0
POINT
  5
FA09
330
F97D
100
AcDbEntity
  8
DEFPOINTS
 62
     0
100
AcDbPoint
 10
236338.8931305562
 20
135841.0875639014
 30
0.0
  0
POINT
  5
FA0A
330
F97D
100
AcDbEntity
  8
DEFPOINTS
 62
     0
100
AcDbPoint
 10
235813.6231532732
 20
135841.0875639014
 30
0.0
  0
ENDBLK
  5
F988
330
F97D
100
AcDbEntity
  8
0
100
AcDbBlockEnd
  0
BLOCK
  5
F991
330
F989
100
AcDbEntity
  8
0
100
AcDbBlockBegin
  2
*D87
 70
     1
 10
0.0
 20
0.0
 30
0.0
  3
*D87
  1

  0
LINE
  5
FA0B
330
F989
100
AcDbEntity
  8
0Wymiary-PL
 62
     1
370
    -2
100
AcDbLine
 10
235550.9198630568
 20
135871.0875639014
 30
0.0
 11
235550.9198630568
 21
136611.0875639014
 31
0.0
  0
INSERT
  5
FA0C
330
F989
100
AcDbEntity
  8
0Wymiary-PL
 62
     1
370
    -2
100
AcDbBlockReference
  2
B-DIM
 10
235550.9198630568
 20
135841.0875639014
 30
0.0
 41
30.0
 42
30.0
 43
30.0
 50
270.0
  0
INSERT
  5
FA0D
330
F989
100
AcDbEntity
  8
0Wymiary-PL
 62
     1
370
    -2
100
AcDbBlockReference
  2
B-DIM
 10
235550.9198630568
 20
136641.0875639014
 30
0.0
 41
30.0
 42
30.0
 43
30.0
 50
90.0
  0
MTEXT
  5
FA0E
330
F989
100
AcDbEntity
  8
0Wymiary-PL
 62
    10
100
AcDbMText
 10
235470.9198630568
 20
136241.0875639014
 30
0.0
 40
80.0
 41
0.0
 71
     5
 72
     1
  1
\A1;800
  7
ROMANS
 11
0.0000000000000001
 21
1.0
 31
0.0
 73
     1
 44
1.0
1001
ACAD
1000
MTEXTBEGIN
1070
    73
1070
     1
1070
    44
1040
1.0
1070
    74
1070
     0
1000
MTEXTEND
  0
POINT
  5
FA0F
330
F989
100
AcDbEntity
  8
DEFPOINTS
 62
     0
100
AcDbPoint
 10
236338.8931305562
 20
135841.0875639014
 30
0.0
  0
POINT
  5
FA10
330
F989
100
AcDbEntity
  8
DEFPOINTS
 62
     0
100
AcDbPoint
 10
236338.8931305562
 20
136641.0875639014
 30
0.0
  0
POINT
  5
FA11
330
F989
100
AcDbEntity
  8
DEFPOINTS
 62
     0
100
AcDbPoint
 10
235550.9198630568
 20
136641.0875639014
 30
0.0
  0
ENDBLK
  5
F992
330
F989
100
AcDbEntity
  8
0
100
AcDbBlockEnd
  0
BLOCK
  5
F99B
330
F993
100
AcDbEntity
  8
0
100
AcDbBlockBegin
  2
*D88
 70
     1
 10
0.0
 20
0.0
 30
0.0
  3
*D88
  1

  0
LINE
  5
FA12
330
F993
100
AcDbEntity
  8
0Wymiary-PL
 62
     1
370
    -2
100
AcDbLine
 10
241747.2484154348
 20
137118.318410901
 30
0.0
 11
241457.2484154348
 21
137118.318410901
 31
0.0
  0
INSERT
  5
FA13
330
F993
100
AcDbEntity
  8
0Wymiary-PL
 62
     1
370
    -2
100
AcDbBlockReference
  2
B-DIM
 10
241777.2484154348
 20
137118.318410901
 30
0.0
 41
30.0
 42
30.0
 43
30.0
  0
INSERT
  5
FA14
330
F993
100
AcDbEntity
  8
0Wymiary-PL
 62
     1
370
    -2
100
AcDbBlockReference
  2
B-DIM
 10
241427.2484154348
 20
137118.318410901
 30
0.0
 41
30.0
 42
30.0
 43
30.0
 50
180.0
  0
MTEXT
  5
FA15
330
F993
100
AcDbEntity
  8
0Wymiary-PL
 62
    10
100
AcDbMText
 10
241602.2484154348
 20
137198.318410901
 30
0.0
 40
80.0
 41
0.0
 71
     5
 72
     1
  1
\A1;350
  7
ROMANS
 73
     1
 44
1.0
1001
ACAD
1000
MTEXTBEGIN
1070
    73
1070
     1
1070
    44
1040
1.0
1070
    74
1070
     0
1000
MTEXTEND
  0
POINT
  5
FA16
330
F993
100
AcDbEntity
  8
DEFPOINTS
 62
     0
100
AcDbPoint
 10
241777.2484154348
 20
136467.5327194048
 30
0.0
  0
POINT
  5
FA17
330
F993
100
AcDbEntity
  8
DEFPOINTS
 62
     0
100
AcDbPoint
 10
241427.2484154348
 20
136467.532719405
 30
0.0
  0
POINT
  5
FA18
330
F993
100
AcDbEntity
  8
DEFPOINTS
 62
     0
100
AcDbPoint
 10
241427.2484154348
 20
137118.318410901
 30
0.0
  0
ENDBLK
  5
F99C
330
F993
100
AcDbEntity
  8
0
100
AcDbBlockEnd
  0
BLOCK
  5
F9A5
330
F99D
100
AcDbEntity
  8
0
100
AcDbBlockBegin
  2
*D89
 70
     1
 10
0.0
 20
0.0
 30
0.0
  3
*D89
  1

  0
LINE
  5
FA19
330
F99D
100
AcDbEntity
  8
0Wymiary-PL
 62
     1
370
    -2
100
AcDbLine
 10
241397.2484154348
 20
137118.318410901
 30
0.0
 11
240357.2484154348
 21
137118.318410901
 31
0.0
  0
INSERT
  5
FA1A
330
F99D
100
AcDbEntity
  8
0Wymiary-PL
 62
     1
370
    -2
100
AcDbBlockReference
  2
B-DIM
 10
241427.2484154348
 20
137118.318410901
 30
0.0
 41
30.0
 42
30.0
 43
30.0
  0
INSERT
  5
FA1B
330
F99D
100
AcDbEntity
  8
0Wymiary-PL
 62
     1
370
    -2
100
AcDbBlockReference
  2
B-DIM
 10
240327.2484154348
 20
137118.318410901
 30
0.0
 41
30.0
 42
30.0
 43
30.0
 50
180.0
  0
MTEXT
  5
FA1C
330
F99D
100
AcDbEntity
  8
0Wymiary-PL
 62
    10
100
AcDbMText
 10
240877.2484154348
 20
137198.318410901
 30
0.0
 40
80.0
 41
0.0
 71
     5
 72
     1
  1
\A1;1100
  7
ROMANS
 73
     1
 44
1.0
1001
ACAD
1000
MTEXTBEGIN
1070
    73
1070
     1
1070
    44
1040
1.0
1070
    74
1070
     0
1000
MTEXTEND
  0
POINT
  5
FA1D
330
F99D
100
AcDbEntity
  8
DEFPOINTS
 62
     0
100
AcDbPoint
 10
241427.2484154348
 20
136467.532719405
 30
0.0
  0
POINT
  5
FA1E
330
F99D
100
AcDbEntity
  8
DEFPOINTS
 62
     0
100
AcDbPoint
 10
240327.2484154348
 20
136532.5327194048
 30
0.0
  0
POINT
  5
FA1F
330
F99D
100
AcDbEntity
  8
DEFPOINTS
 62
     0
100
AcDbPoint
 10
240327.2484154348
 20
137118.318410901
 30
0.0
  0
ENDBLK
  5
F9A6
330
F99D
100
AcDbEntity
  8
0
100
AcDbBlockEnd
  0
BLOCK
  5
F9AF
330
F9A7
100
AcDbEntity
  8
0
100
AcDbBlockBegin
  2
*D90
 70
     1
 10
0.0
 20
0.0
 30
0.0
  3
*D90
  1

  0
LINE
  5
FA20
330
F9A7
100
AcDbEntity
  8
0Wymiary-PL
 62
     1
370
    -2
100
AcDbLine
 10
241747.2484154348
 20
137332.903755979
 30
0.0
 11
240357.2484154348
 21
137332.903755979
 31
0.0
  0
INSERT
  5
FA21
330
F9A7
100
AcDbEntity
  8
0Wymiary-PL
 62
     1
370
    -2
100
AcDbBlockReference
  2
B-DIM
 10
241777.2484154348
 20
137332.903755979
 30
0.0
 41
30.0
 42
30.0
 43
30.0
  0
INSERT
  5
FA22
330
F9A7
100
AcDbEntity
  8
0Wymiary-PL
 62
     1
370
    -2
100
AcDbBlockReference
  2
B-DIM
 10
240327.2484154348
 20
137332.903755979
 30
0.0
 41
30.0
 42
30.0
 43
30.0
 50
180.0
  0
MTEXT
  5
FA23
330
F9A7
100
AcDbEntity
  8
0Wymiary-PL
 62
    10
100
AcDbMText
 10
241052.2484154348
 20
137412.903755979
 30
0.0
 40
80.0
 41
0.0
 71
     5
 72
     1
  1
\A1;1450
  7
ROMANS
 73
     1
 44
1.0
1001
ACAD
1000
MTEXTBEGIN
1070
    73
1070
     1
1070
    44
1040
1.0
1070
    74
1070
     0
1000
MTEXTEND
  0
POINT
  5
FA24
330
F9A7
100
AcDbEntity
  8
DEFPOINTS
 62
     0
100
AcDbPoint
 10
241777.2484154348
 20
136467.5327194048
 30
0.0
  0
POINT
  5
FA25
330
F9A7
100
AcDbEntity
  8
DEFPOINTS
 62
     0
100
AcDbPoint
 10
240327.2484154348
 20
136532.5327194048
 30
0.0
  0
POINT
  5
FA26
330
F9A7
100
AcDbEntity
  8
DEFPOINTS
 62
     0
100
AcDbPoint
 10
240327.2484154348
 20
137332.903755979
 30
0.0
  0
ENDBLK
  5
F9B0
330
F9A7
100
AcDbEntity
  8
0
100
AcDbBlockEnd
  0
BLOCK
  5
F9BB
330
F9B1
100
AcDbEntity
  8
0
100
AcDbBlockBegin
  2
*D91
 70
     1
 10
0.0
 20
0.0
 30
0.0
  3
*D91
  1

  0
LINE
  5
FA27
330
F9B1
100
AcDbEntity
  8
0Wymiary-PL
 62
     1
370
    -2
100
AcDbLine
 10
242023.394132447
 20
136671.0875639014
 30
0.0
 11
242023.394132447
 21
136701.0875639014
 31
0.0
  0
LINE
  5
FA28
330
F9B1
100
AcDbEntity
  8
0Wymiary-PL
 62
     1
370
    -2
100
AcDbLine
 10
242023.394132447
 20
136546.0875639016
 30
0.0
 11
242023.394132447
 21
136516.0875639016
 31
0.0
  0
LINE
  5
FA29
330
F9B1
100
AcDbEntity
  8
0Wymiary-PL
 62
     1
370
    -2
100
AcDbLine
 10
242023.394132447
 20
136641.0875639014
 30
0.0
 11
242023.394132447
 21
136576.0875639016
 31
0.0
  0
INSERT
  5
FA2A
330
F9B1
100
AcDbEntity
  8
0Wymiary-PL
 62
     1
370
    -2
100
AcDbBlockReference
  2
B-DIM
 10
242023.394132447
 20
136641.0875639014
 30
0.0
 41
30.0
 42
30.0
 43
30.0
 50
270.0
  0
INSERT
  5
FA2B
330
F9B1
100
AcDbEntity
  8
0Wymiary-PL
 62
     1
370
    -2
100
AcDbBlockReference
  2
B-DIM
 10
242023.394132447
 20
136576.0875639016
 30
0.0
 41
30.0
 42
30.0
 43
30.0
 50
90.0
  0
MTEXT
  5
FA2C
330
F9B1
100
AcDbEntity
  8
0Wymiary-PL
 62
    10
100
AcDbMText
 10
241943.394132447
 20
136608.5875639015
 30
0.0
 40
80.0
 41
0.0
 71
     5
 72
     1
  1
\A1;65
  7
ROMANS
 11
0.0000000000000001
 21
1.0
 31
0.0
 73
     1
 44
1.0
1001
ACAD
1000
MTEXTBEGIN
1070
    73
1070
     1
1070
    44
1040
1.0
1070
    74
1070
     0
1000
MTEXTEND
  0
POINT
  5
FA2D
330
F9B1
100
AcDbEntity
  8
DEFPOINTS
 62
     0
100
AcDbPoint
 10
241498.124155164
 20
136641.0875639014
 30
0.0
  0
POINT
  5
FA2E
330
F9B1
100
AcDbEntity
  8
DEFPOINTS
 62
     0
100
AcDbPoint
 10
241498.124155164
 20
136576.0875639016
 30
0.0
  0
POINT
  5
FA2F
330
F9B1
100
AcDbEntity
  8
DEFPOINTS
 62
     0
100
AcDbPoint
 10
242023.394132447
 20
136576.0875639016
 30
0.0
  0
ENDBLK
  5
F9BC
330
F9B1
100
AcDbEntity
  8
0
100
AcDbBlockEnd
  0
BLOCK
  5
F9C5
330
F9BD
100
AcDbEntity
  8
0
100
AcDbBlockBegin
  2
*D92
 70
     1
 10
0.0
 20
0.0
 30
0.0
  3
*D92
  1

  0
LINE
  5
FA30
330
F9BD
100
AcDbEntity
  8
0Wymiary-PL
 62
     1
370
    -2
100
AcDbLine
 10
242023.394132447
 20
136546.0875639016
 30
0.0
 11
242023.394132447
 21
135936.0875639014
 31
0.0
  0
INSERT
  5
FA31
330
F9BD
100
AcDbEntity
  8
0Wymiary-PL
 62
     1
370
    -2
100
AcDbBlockReference
  2
B-DIM
 10
242023.394132447
 20
136576.0875639016
 30
0.0
 41
30.0
 42
30.0
 43
30.0
 50
90.0
  0
INSERT
  5
FA32
330
F9BD
100
AcDbEntity
  8
0Wymiary-PL
 62
     1
370
    -2
100
AcDbBlockReference
  2
B-DIM
 10
242023.394132447
 20
135906.0875639014
 30
0.0
 41
30.0
 42
30.0
 43
30.0
 50
270.0
  0
MTEXT
  5
FA33
330
F9BD
100
AcDbEntity
  8
0Wymiary-PL
 62
    10
100
AcDbMText
 10
241943.394132447
 20
136241.0875639015
 30
0.0
 40
80.0
 41
0.0
 71
     5
 72
     1
  1
\A1;670
  7
ROMANS
 11
0.0000000000000001
 21
1.0
 31
0.0
 73
     1
 44
1.0
1001
ACAD
1000
MTEXTBEGIN
1070
    73
1070
     1
1070
    44
1040
1.0
1070
    74
1070
     0
1000
MTEXTEND
  0
POINT
  5
FA34
330
F9BD
100
AcDbEntity
  8
DEFPOINTS
 62
     0
100
AcDbPoint
 10
241498.124155164
 20
136576.0875639016
 30
0.0
  0
POINT
  5
FA35
330
F9BD
100
AcDbEntity
  8
DEFPOINTS
 62
     0
100
AcDbPoint
 10
241848.124155164
 20
135906.0875639014
 30
0.0
  0
POINT
  5
FA36
330
F9BD
100
AcDbEntity
  8
DEFPOINTS
 62
     0
100
AcDbPoint
 10
242023.394132447
 20
135906.0875639014
 30
0.0
  0
ENDBLK
  5
F9C6
330
F9BD
100
AcDbEntity
  8
0
100
AcDbBlockEnd
  0
BLOCK
  5
F9D1
330
F9C7
100
AcDbEntity
  8
0
100
AcDbBlockBegin
  2
*D93
 70
     1
 10
0.0
 20
0.0
 30
0.0
  3
*D93
  1

  0
LINE
  5
FA37
330
F9C7
100
AcDbEntity
  8
0Wymiary-PL
 62
     1
370
    -2
100
AcDbLine
 10
242023.394132447
 20
135936.0875639014
 30
0.0
 11
242023.394132447
 21
135966.0875639014
 31
0.0
  0
LINE
  5
FA38
330
F9C7
100
AcDbEntity
  8
0Wymiary-PL
 62
     1
370
    -2
100
AcDbLine
 10
242023.394132447
 20
135811.0875639014
 30
0.0
 11
242023.394132447
 21
135781.0875639014
 31
0.0
  0
LINE
  5
FA39
330
F9C7
100
AcDbEntity
  8
0Wymiary-PL
 62
     1
370
    -2
100
AcDbLine
 10
242023.394132447
 20
135906.0875639014
 30
0.0
 11
242023.394132447
 21
135841.0875639014
 31
0.0
  0
INSERT
  5
FA3A
330
F9C7
100
AcDbEntity
  8
0Wymiary-PL
 62
     1
370
    -2
100
AcDbBlockReference
  2
B-DIM
 10
242023.394132447
 20
135906.0875639014
 30
0.0
 41
30.0
 42
30.0
 43
30.0
 50
270.0
  0
INSERT
  5
FA3B
330
F9C7
100
AcDbEntity
  8
0Wymiary-PL
 62
     1
370
    -2
100
AcDbBlockReference
  2
B-DIM
 10
242023.394132447
 20
135841.0875639014
 30
0.0
 41
30.0
 42
30.0
 43
30.0
 50
90.0
  0
MTEXT
  5
FA3C
330
F9C7
100
AcDbEntity
  8
0Wymiary-PL
 62
    10
100
AcDbMText
 10
241943.394132447
 20
135873.5875639014
 30
0.0
 40
80.0
 41
0.0
 71
     5
 72
     1
  1
\A1;65
  7
ROMANS
 11
0.0000000000000001
 21
1.0
 31
0.0
 73
     1
 44
1.0
1001
ACAD
1000
MTEXTBEGIN
1070
    73
1070
     1
1070
    44
1040
1.0
1070
    74
1070
     0
1000
MTEXTEND
  0
POINT
  5
FA3D
330
F9C7
100
AcDbEntity
  8
DEFPOINTS
 62
     0
100
AcDbPoint
 10
241848.124155164
 20
135906.0875639014
 30
0.0
  0
POINT
  5
FA3E
330
F9C7
100
AcDbEntity
  8
DEFPOINTS
 62
     0
100
AcDbPoint
 10
241498.124155164
 20
135841.0875639014
 30
0.0
  0
POINT
  5
FA3F
330
F9C7
100
AcDbEntity
  8
DEFPOINTS
 62
     0
100
AcDbPoint
 10
242023.394132447
 20
135841.0875639014
 30
0.0
  0
ENDBLK
  5
F9D2
330
F9C7
100
AcDbEntity
  8
0
100
AcDbBlockEnd
  0
BLOCK
  5
F9DB
330
F9D3
100
AcDbEntity
  8
0
100
AcDbBlockBegin
  2
*D94
 70
     1
 10
0.0
 20
0.0
 30
0.0
  3
*D94
  1

  0
LINE
  5
FA40
330
F9D3
100
AcDbEntity
  8
0Wymiary-PL
 62
     1
370
    -2
100
AcDbLine
 10
242286.0974226634
 20
135871.0875639014
 30
0.0
 11
242286.0974226634
 21
136611.0875639014
 31
0.0
  0
INSERT
  5
FA41
330
F9D3
100
AcDbEntity
  8
0Wymiary-PL
 62
     1
370
    -2
100
AcDbBlockReference
  2
B-DIM
 10
242286.0974226634
 20
135841.0875639014
 30
0.0
 41
30.0
 42
30.0
 43
30.0
 50
270.0
  0
INSERT
  5
FA42
330
F9D3
100
AcDbEntity
  8
0Wymiary-PL
 62
     1
370
    -2
100
AcDbBlockReference
  2
B-DIM
 10
242286.0974226634
 20
136641.0875639014
 30
0.0
 41
30.0
 42
30.0
 43
30.0
 50
90.0
  0
MTEXT
  5
FA43
330
F9D3
100
AcDbEntity
  8
0Wymiary-PL
 62
    10
100
AcDbMText
 10
242206.0974226635
 20
136241.0875639014
 30
0.0
 40
80.0
 41
0.0
 71
     5
 72
     1
  1
\A1;800
  7
ROMANS
 11
0.0000000000000001
 21
1.0
 31
0.0
 73
     1
 44
1.0
1001
ACAD
1000
MTEXTBEGIN
1070
    73
1070
     1
1070
    44
1040
1.0
1070
    74
1070
     0
1000
MTEXTEND
  0
POINT
  5
FA44
330
F9D3
100
AcDbEntity
  8
DEFPOINTS
 62
     0
100
AcDbPoint
 10
241498.124155164
 20
135841.0875639014
 30
0.0
  0
POINT
  5
FA45
330
F9D3
100
AcDbEntity
  8
DEFPOINTS
 62
     0
100
AcDbPoint
 10
241498.124155164
 20
136641.0875639014
 30
0.0
  0
POINT
  5
FA46
330
F9D3
100
AcDbEntity
  8
DEFPOINTS
 62
     0
100
AcDbPoint
 10
242286.0974226634
 20
136641.0875639014
 30
0.0
  0
ENDBLK
  5
F9DC
330
F9D3
100
AcDbEntity
  8
0
100
AcDbBlockEnd
  0
BLOCK
  5
FA48
330
FA47
100
AcDbEntity
  8
0
100
AcDbBlockBegin
  2
_Dot
 70
     0
 10
0.0
 20
0.0
 30
0.0
  3
_Dot
  1

  0
LWPOLYLINE
  5
FA49
330
FA47
100
AcDbEntity
  8
0
  6
ByBlock
 62
     0
100
AcDbPolyline
 90
        2
 70
     1
 43
0.5
 10
-0.25
 20
0.0
 42
1.0
 10
0.25
 20
0.0
 42
1.0
  0
LINE
  5
FA4A
330
FA47
100
AcDbEntity
  8
0
  6
ByBlock
 62
     0
370
    -2
100
AcDbLine
 10
-0.5
 20
0.0
 30
0.0
 11
-1.0
 21
0.0
 31
0.0
  0
ENDBLK
  5
FA4B
330
FA47
100
AcDbEntity
  8
0
100
AcDbBlockEnd
  0
BLOCK
  5
FA4D
330
FA4C
100
AcDbEntity
  8
0
100
AcDbBlockBegin
  2
_Open90
 70
     0
 10
0.0
 20
0.0
 30
0.0
  3
_Open90
  1

  0
LINE
  5
FA4E
330
FA4C
100
AcDbEntity
  8
0
  6
ByBlock
 62
     0
370
    -2
100
AcDbLine
 10
-0.019685060629922
 20
0.019685060629922
 30
0.0
 11
0.0
 21
0.0
 31
0.0
  0
LINE
  5
FA4F
330
FA4C
100
AcDbEntity
  8
0
  6
ByBlock
 62
     0
370
    -2
100
AcDbLine
 10
0.0
 20
0.0
 30
0.0
 11
-0.019685060629922
 21
-0.019685060629922
 31
0.0
  0
LINE
  5
FA50
330
FA4C
100
AcDbEntity
  8
0
  6
ByBlock
 62
     0
370
    -2
100
AcDbLine
 10
0.0
 20
0.0
 30
0.0
 11
-0.039370121259844
 21
0.0
 31
0.0
  0
ENDBLK
  5
FA51
330
FA4C
100
AcDbEntity
  8
0
100
AcDbBlockEnd
  0
BLOCK
  5
FA53
330
FA52
100
AcDbEntity
  8
0
100
AcDbBlockBegin
  2
_Small
 70
     0
 10
0.0
 20
0.0
 30
0.0
  3
_Small
  1

  0
CIRCLE
  5
FA54
330
FA52
100
AcDbEntity
  8
0
 62
     0
370
    -2
100
AcDbCircle
 10
0.0
 20
0.0
 30
0.0
 40
0.009842525
  0
ENDBLK
  5
FA55
330
FA52
100
AcDbEntity
  8
0
100
AcDbBlockEnd
  0
BLOCK
  5
FA57
330
FA56
100
AcDbEntity
  8
0
 48
4.0
100
AcDbBlockBegin
  2
B-DIM_K
 70
     0
 10
0.0
 20
0.0
 30
0.0
  3
B-DIM_K
  1

  0
LINE
  5
FA58
330
FA56
100
AcDbEntity
  8
0
 62
     7
100
AcDbLine
 10
-0.0000000000002274
 20
-1.100000000000363
 30
0.0
 11
-0.0000000000002274
 21
1.100000000000363
 31
0.0
  0
LWPOLYLINE
  5
FA59
330
FA56
100
AcDbEntity
  8
0
 62
     7
100
AcDbPolyline
 90
        2
 70
     0
 43
0.0
 10
-0.7071067811868943
 20
-0.707106781186667
 10
0.7071067811864396
 20
0.707106781186667
  0
LINE
  5
FA5A
330
FA56
100
AcDbEntity
  8
0
 62
     7
100
AcDbLine
 10
1.200000000000045
 20
0.0
 30
0.0
 11
-1.200000000000045
 21
0.0
 31
0.0
  0
ENDBLK
  5
FA5B
330
FA56
100
AcDbEntity
  8
0
 48
4.0
100
AcDbBlockEnd
  0
BLOCK
  5
FA5D
330
FA5C
100
AcDbEntity
  8
0
 48
4.0
100
AcDbBlockBegin
  2
B-DIM_W
 70
     0
 10
0.0
 20
0.0
 30
0.0
  3
B-DIM_W
  1

  0
SOLID
  5
FA5E
330
FA5C
100
AcDbEntity
  8
WYMIARY
 62
     1
 48
4.0
100
AcDbTrace
 10
-18.00000000000182
 20
3.000000000001818
 30
0.0
 11
0.0
 21
0.0
 31
0.0
 12
-18.00000000000182
 22
-3.000000000001818
 32
0.0
 13
-18.00000000000182
 23
-3.000000000001818
 33
0.0
  0
ENDBLK
  5
FA5F
330
FA5C
100
AcDbEntity
  8
0
 48
4.0
100
AcDbBlockEnd
  0
ENDSEC
  0
SECTION
  2
ENTITIES
  0
3DFACE
  5
F6E8
330
2
100
AcDbEntity
  8
0
370
     5
100
AcDbFace
 10
237157.8971176162
 20
136921.0875648726
 30
0.0
 11
237174.8976870457
 21
136921.0875649394
 31
0.0
 12
237174.89768703
 22
136981.0875649394
 32
0.0
 13
237157.8971176083
 23
136981.0875648726
 33
0.0
  0
LINE
  5
F6E9
330
2
100
AcDbEntity
  8
0
370
     5
380
     1
100
AcDbLine
 10
237777.8887541077
 20
136234.9779751961
 30
0.0
 11
237778.2702943206
 21
136415.0875639014
 31
0.0
  0
LINE
  5
F6EA
330
2
100
AcDbEntity
  8
0
370
     5
100
AcDbLine
 10
237778.3126618831
 20
136435.0875639014
 30
0.0
 11
237778.651643709
 21
136595.1070721445
 31
0.0
  0
LINE
  5
F6EB
330
2
100
AcDbEntity
  8
0
370
     5
100
AcDbLine
 10
237778.6939733523
 20
136615.0891720562
 30
0.0
 11
237778.8936853881
 21
136709.3650869136
 31
0.0
  0
LINE
  5
F6EC
330
2
100
AcDbEntity
  8
0
370
     5
380
     1
100
AcDbLine
 10
237140.8965481866
 20
136981.0875634299
 30
0.0
 11
237140.8965481866
 21
136891.0264119479
 31
0.0
  0
CIRCLE
  5
F6ED
330
2
100
AcDbEntity
  8
0
370
     5
100
AcDbCircle
 10
236748.8931305562
 20
135766.0875639014
 30
0.0
 40
15.0
  0
CIRCLE
  5
F6EE
330
2
100
AcDbEntity
  8
0
370
     5
100
AcDbCircle
 10
237028.8931305562
 20
135766.0875639014
 30
0.0
 40
15.0
  0
3DFACE
  5
F6EF
330
2
100
AcDbEntity
  8
0
370
     5
100
AcDbFace
 10
237838.9102183153
 20
136615.0875639387
 30
0.0
 11
237838.9102183153
 21
136627.7542306054
 31
0.0
 12
237778.9102183153
 22
136627.7542306054
 32
0.0
 13
237778.9102183153
 23
136615.0875639387
 33
0.0
  0
3DFACE
  5
F6F0
330
2
100
AcDbEntity
  8
0
370
     5
100
AcDbFace
 10
237838.9102183153
 20
136627.7542306054
 30
0.0
 11
237838.9102183153
 21
136640.4208972721
 31
0.0
 12
237778.9102183153
 22
136640.4208972721
 32
0.0
 13
237778.9102183153
 23
136627.7542306054
 33
0.0
  0
3DFACE
  5
F6F1
330
2
100
AcDbEntity
  8
0
370
     5
100
AcDbFace
 10
237838.9102183153
 20
136640.4208972721
 30
0.0
 11
237838.9102183153
 21
136653.0875639388
 31
0.0
 12
237778.9102183153
 22
136653.0875639388
 32
0.0
 13
237778.9102183153
 23
136640.4208972721
 33
0.0
  0
3DFACE
  5
F6F2
330
2
100
AcDbEntity
  8
0
370
     5
100
AcDbFace
 10
237838.9102183153
 20
136653.0875639388
 30
0.0
 11
237838.9102183153
 21
136665.7542306054
 31
0.0
 12
237778.9102183153
 22
136665.7542306054
 32
0.0
 13
237778.9102183153
 23
136653.0875639388
 33
0.0
  0
3DFACE
  5
F6F3
330
2
100
AcDbEntity
  8
0
370
     5
100
AcDbFace
 10
237838.9102183153
 20
136665.7542306054
 30
0.0
 11
237838.9102183153
 21
136678.4208972721
 31
0.0
 12
237778.9102183153
 22
136678.4208972721
 32
0.0
 13
237778.9102183153
 23
136665.7542306054
 33
0.0
  0
3DFACE
  5
F6F4
330
2
100
AcDbEntity
  8
0
370
     5
100
AcDbFace
 10
237838.9102183153
 20
136678.4208972721
 30
0.0
 11
237838.9102183153
 21
136691.0875639388
 31
0.0
 12
237778.9102183153
 22
136691.0875639388
 32
0.0
 13
237778.9102183153
 23
136678.4208972721
 33
0.0
  0
3DFACE
  5
F6F5
330
2
100
AcDbEntity
  8
0
370
     5
100
AcDbFace
 10
237838.9102183153
 20
136267.0875668072
 30
0.0
 11
237838.9102183153
 21
136281.8875665203
 31
0.0
 12
237777.9881304977
 22
136281.889519851
 32
0.0
 13
237777.9567786428
 23
136267.0895865529
 33
0.0
  0
3DFACE
  5
F6F6
330
2
100
AcDbEntity
  8
0
370
     5
100
AcDbFace
 10
237838.9102183153
 20
136281.8875665203
 30
0.0
 11
237838.9102183153
 21
136296.6875662335
 31
0.0
 12
237778.0194823527
 22
136296.6894531491
 32
0.0
 13
237777.9881304977
 23
136281.889519851
 33
0.0
  0
3DFACE
  5
F6F7
330
2
100
AcDbEntity
  8
0
370
     5
100
AcDbFace
 10
237838.9102183153
 20
136296.6875662335
 30
0.0
 11
237838.9102183153
 21
136311.4875659466
 31
0.0
 12
237778.0508303511
 22
136311.4875659466
 32
0.0
 13
237778.0194823527
 23
136296.6894531491
 33
0.0
  0
3DFACE
  5
F6F8
330
2
100
AcDbEntity
  8
0
370
     5
100
AcDbFace
 10
237838.9102183153
 20
136311.4875659466
 30
0.0
 11
237838.9102183153
 21
136326.2875656598
 31
0.0
 12
237778.0821860626
 22
136326.2893197452
 32
0.0
 13
237778.0508303511
 23
136311.4875659466
 33
0.0
  0
3DFACE
  5
F6F9
330
2
100
AcDbEntity
  8
0
370
     5
100
AcDbFace
 10
237838.9102183153
 20
136326.2875656598
 30
0.0
 11
237838.9102183153
 21
136341.0875653729
 31
0.0
 12
237778.1135379176
 22
136341.0892530433
 32
0.0
 13
237778.0821860626
 23
136326.2893197452
 33
0.0
  0
3DFACE
  5
F6FA
330
2
100
AcDbEntity
  8
0
370
     5
100
AcDbFace
 10
237838.9102183153
 20
136341.0875653729
 30
0.0
 11
237838.9102183153
 21
136355.8875650861
 31
0.0
 12
237778.1448897725
 22
136355.8891863414
 32
0.0
 13
237778.1135379176
 23
136341.0892530433
 33
0.0
  0
3DFACE
  5
F6FB
330
2
100
AcDbEntity
  8
0
370
     5
100
AcDbFace
 10
237838.9102183153
 20
136355.8875650861
 30
0.0
 11
237838.9102183153
 21
136370.6875647993
 31
0.0
 12
237778.1762416275
 22
136370.6891196394
 32
0.0
 13
237778.1448897725
 23
136355.8891863414
 33
0.0
  0
3DFACE
  5
F6FC
330
2
100
AcDbEntity
  8
0
370
     5
100
AcDbFace
 10
237838.9102183153
 20
136370.6875647993
 30
0.0
 11
237838.9102183153
 21
136385.4875645124
 31
0.0
 12
237778.9102183153
 22
136385.4875645124
 32
0.0
 13
237778.1762416275
 23
136370.6891196394
 33
0.0
  0
3DFACE
  5
F6FD
330
2
100
AcDbEntity
  8
0
370
     5
100
AcDbFace
 10
237838.9102183153
 20
136385.4875645124
 30
0.0
 11
237838.9102183153
 21
136400.2875642256
 31
0.0
 12
237778.2389453374
 22
136400.2889862356
 32
0.0
 13
237778.9102183153
 23
136385.4875645124
 33
0.0
  0
3DFACE
  5
F6FE
330
2
100
AcDbEntity
  8
0
370
     5
100
AcDbFace
 10
237838.9102183153
 20
136400.2875642256
 30
0.0
 11
237838.9102183153
 21
136415.0875639387
 31
0.0
 12
237778.2702971923
 22
136415.0889195336
 32
0.0
 13
237778.2389453374
 23
136400.2889862356
 33
0.0
  0
3DFACE
  5
F6FF
330
2
100
AcDbEntity
  8
0
370
     5
100
AcDbFace
 10
237174.8976870457
 20
136921.0875649394
 30
0.0
 11
237191.8982564753
 21
136921.0875650062
 31
0.0
 12
237191.8982564517
 22
136981.0875650062
 32
0.0
 13
237174.89768703
 23
136981.0875649394
 33
0.0
  0
3DFACE
  5
F700
330
2
100
AcDbEntity
  8
0
370
     5
100
AcDbFace
 10
237191.8982565225
 20
136921.0875654062
 30
0.0
 11
237208.898825952
 21
136921.087565473
 31
0.0
 12
237208.8988258734
 22
136981.087565473
 32
0.0
 13
237191.8982564517
 23
136981.0875654062
 33
0.0
  0
3DFACE
  5
F701
330
2
100
AcDbEntity
  8
0
370
     5
100
AcDbFace
 10
237208.898825952
 20
136921.0875654712
 30
0.0
 11
237225.8993953816
 21
136921.087565538
 31
0.0
 12
237225.8993952951
 22
136981.087565538
 32
0.0
 13
237208.8988258734
 23
136981.0875654712
 33
0.0
  0
3DFACE
  5
F702
330
2
100
AcDbEntity
  8
0
370
     5
100
AcDbFace
 10
237225.8993953816
 20
136921.087565538
 30
0.0
 11
237242.8999648111
 21
136921.0875656048
 31
0.0
 12
237242.8999647168
 22
136981.0875656048
 32
0.0
 13
237225.8993952951
 23
136981.087565538
 33
0.0
  0
3DFACE
  5
F703
330
2
100
AcDbEntity
  8
0
370
     5
100
AcDbFace
 10
237242.8999648111
 20
136921.0875656048
 30
0.0
 11
237259.9005342407
 21
136921.0875656716
 31
0.0
 12
237259.9005341385
 22
136981.0875656716
 32
0.0
 13
237242.8999647168
 23
136981.0875656048
 33
0.0
  0
3DFACE
  5
F704
330
2
100
AcDbEntity
  8
0
370
     5
100
AcDbFace
 10
237259.9005342407
 20
136921.0875656716
 30
0.0
 11
237276.9011036703
 21
136921.0875657384
 31
0.0
 12
237276.9011035602
 22
136981.0875657384
 32
0.0
 13
237259.9005341385
 23
136981.0875656716
 33
0.0
  0
3DFACE
  5
F705
330
2
100
AcDbEntity
  8
0
370
     5
100
AcDbFace
 10
237276.9011036703
 20
136921.0875657384
 30
0.0
 11
237293.9016730998
 21
136921.0875658052
 31
0.0
 12
237293.9016729819
 22
136981.0875658052
 32
0.0
 13
237276.9011035602
 23
136981.0875657384
 33
0.0
  0
3DFACE
  5
F706
330
2
100
AcDbEntity
  8
0
370
     5
100
AcDbFace
 10
237293.9016730998
 20
136921.0875658052
 30
0.0
 11
237310.9022425294
 21
136921.087565872
 31
0.0
 12
237310.9022424036
 22
136981.087565872
 32
0.0
 13
237293.9016729819
 23
136981.0875658052
 33
0.0
  0
3DFACE
  5
F707
330
2
100
AcDbEntity
  8
0
370
     5
100
AcDbFace
 10
237310.9022425294
 20
136921.087565872
 30
0.0
 11
237327.9028119589
 21
136921.0875659388
 31
0.0
 12
237327.9028118253
 22
136981.0875659388
 32
0.0
 13
237310.9022424036
 23
136981.087565872
 33
0.0
  0
3DFACE
  5
F708
330
2
100
AcDbEntity
  8
0
370
     5
100
AcDbFace
 10
237327.9028119589
 20
136921.0875659388
 30
0.0
 11
237344.9033813885
 21
136921.0875660056
 31
0.0
 12
237344.903381247
 22
136981.0875660056
 32
0.0
 13
237327.9028118253
 23
136981.0875659388
 33
0.0
  0
3DFACE
  5
F709
330
2
100
AcDbEntity
  8
0
370
     5
100
AcDbFace
 10
237344.9033813885
 20
136921.0875660056
 30
0.0
 11
237361.903950818
 21
136921.0875660724
 31
0.0
 12
237361.9039506687
 22
136981.0875660724
 32
0.0
 13
237344.903381247
 23
136981.0875660056
 33
0.0
  0
3DFACE
  5
F70A
330
2
100
AcDbEntity
  8
0
370
     5
100
AcDbFace
 10
237361.903950818
 20
136921.0875660724
 30
0.0
 11
237378.9045202476
 21
136921.0875661392
 31
0.0
 12
237378.9045200904
 22
136981.0875661392
 32
0.0
 13
237361.9039506687
 23
136981.0875660724
 33
0.0
  0
3DFACE
  5
F70B
330
2
100
AcDbEntity
  8
0
370
     5
100
AcDbFace
 10
237378.9045202476
 20
136921.0875661392
 30
0.0
 11
237395.9050896771
 21
136921.087566206
 31
0.0
 12
237395.9050895122
 22
136981.087566206
 32
0.0
 13
237378.9045200904
 23
136981.0875661392
 33
0.0
  0
3DFACE
  5
F70C
330
2
100
AcDbEntity
  8
0
370
     5
100
AcDbFace
 10
237395.9050896771
 20
136921.087566206
 30
0.0
 11
237412.9056591067
 21
136921.0875662728
 31
0.0
 12
237412.9056589338
 22
136981.0875662728
 32
0.0
 13
237395.9050895122
 23
136981.087566206
 33
0.0
  0
3DFACE
  5
F70D
330
2
100
AcDbEntity
  8
0
370
     5
100
AcDbFace
 10
237412.9056591067
 20
136921.0875662728
 30
0.0
 11
237429.9062285363
 21
136921.0875663396
 31
0.0
 12
237429.9062283555
 22
136981.0875663396
 32
0.0
 13
237412.9056589338
 23
136981.0875662728
 33
0.0
  0
3DFACE
  5
F70E
330
2
100
AcDbEntity
  8
0
370
     5
100
AcDbFace
 10
237429.9062285363
 20
136921.0875663396
 30
0.0
 11
237446.9067979659
 21
136921.0875664064
 31
0.0
 12
237446.9067977772
 22
136981.0875664064
 32
0.0
 13
237429.9062283555
 23
136981.0875663396
 33
0.0
  0
3DFACE
  5
F70F
330
2
100
AcDbEntity
  8
0
370
     5
100
AcDbFace
 10
237446.9067979659
 20
136921.0875664064
 30
0.0
 11
237463.9073673954
 21
136921.0875664732
 31
0.0
 12
237463.907367199
 22
136981.0875664732
 32
0.0
 13
237446.9067977772
 23
136981.0875664064
 33
0.0
  0
3DFACE
  5
F710
330
2
100
AcDbEntity
  8
0
370
     5
100
AcDbFace
 10
237463.9073673954
 20
136921.0875664732
 30
0.0
 11
237480.907936825
 21
136921.08756654
 31
0.0
 12
237480.9079366207
 22
136981.0875665399
 32
0.0
 13
237463.907367199
 23
136981.0875664732
 33
0.0
  0
3DFACE
  5
F711
330
2
100
AcDbEntity
  8
0
370
     5
100
AcDbFace
 10
237480.907936825
 20
136921.08756654
 30
0.0
 11
237497.9085062546
 21
136921.0875666068
 31
0.0
 12
237497.9085060423
 22
136981.0875666068
 32
0.0
 13
237480.9079366207
 23
136981.0875665399
 33
0.0
  0
3DFACE
  5
F712
330
2
100
AcDbEntity
  8
0
370
     5
100
AcDbFace
 10
237497.9085062546
 20
136921.0875666068
 30
0.0
 11
237514.9090756841
 21
136921.0875666736
 31
0.0
 12
237514.9090754641
 22
136981.0875666736
 32
0.0
 13
237497.9085060423
 23
136981.0875666068
 33
0.0
  0
3DFACE
  5
F713
330
2
100
AcDbEntity
  8
0
370
     5
100
AcDbFace
 10
237514.9090756841
 20
136921.0875666736
 30
0.0
 11
237531.9096451137
 21
136921.0875667404
 31
0.0
 12
237531.9096448857
 22
136981.0875667404
 32
0.0
 13
237514.9090754641
 23
136981.0875666736
 33
0.0
  0
3DFACE
  5
F714
330
2
100
AcDbEntity
  8
0
370
     5
100
AcDbFace
 10
237531.9096451137
 20
136921.0875667404
 30
0.0
 11
237548.9102145432
 21
136921.0875668072
 31
0.0
 12
237548.9102143074
 22
136981.0875668072
 32
0.0
 13
237531.9096448857
 23
136981.0875667404
 33
0.0
  0
3DFACE
  5
F715
330
2
100
AcDbEntity
  8
0
370
     5
100
AcDbFace
 10
237778.9102183153
 20
136691.0875639388
 30
0.0
 11
237778.4563658459
 21
136705.5293836467
 31
0.0
 12
237838.337969551
 22
136709.2968148279
 32
0.0
 13
237838.9102183153
 23
136691.0875639388
 33
0.0
  0
3DFACE
  5
F716
330
2
100
AcDbEntity
  8
0
370
     5
100
AcDbFace
 10
237778.4563658459
 20
136705.5293836467
 30
0.0
 11
237777.096599586
 21
136719.9142080898
 31
0.0
 12
237836.6234816625
 22
136727.4342021224
 32
0.0
 13
237838.337969551
 23
136709.2968148279
 33
0.0
  0
3DFACE
  5
F717
330
2
100
AcDbEntity
  8
0
370
     5
100
AcDbFace
 10
237777.096599586
 20
136719.9142080898
 30
0.0
 11
237774.8362859118
 21
136734.1852669375
 31
0.0
 12
237833.7735209502
 22
136745.4281458405
 32
0.0
 13
237836.6234816625
 23
136727.4342021224
 33
0.0
  0
3DFACE
  5
F718
330
2
100
AcDbEntity
  8
0
370
     5
100
AcDbFace
 10
237774.8362859118
 20
136734.1852669375
 30
0.0
 11
237771.6843452489
 21
136748.2862388401
 31
0.0
 12
237829.7993349072
 22
136763.2076321065
 32
0.0
 13
237833.7735209502
 23
136745.4281458405
 33
0.0
  0
3DFACE
  5
F719
330
2
100
AcDbEntity
  8
0
370
     5
100
AcDbFace
 10
237771.6843452489
 20
136748.2862388401
 30
0.0
 11
237767.653216867
 21
136762.1614737033
 31
0.0
 12
237824.7166078301
 22
136780.7024934106
 32
0.0
 13
237829.7993349072
 23
136763.2076321065
 33
0.0
  0
3DFACE
  5
F71A
330
2
100
AcDbEntity
  8
0
370
     5
100
AcDbFace
 10
237767.653216867
 20
136762.1614737033
 30
0.0
 11
237762.7588097884
 21
136775.7562123139
 31
0.0
 12
237818.5453989208
 22
136797.8436855276
 32
0.0
 13
237824.7166078301
 23
136780.7024934106
 33
0.0
  0
3DFACE
  5
F71B
330
2
100
AcDbEntity
  8
0
370
     5
100
AcDbFace
 10
237762.7588097884
 20
136775.7562123139
 30
0.0
 11
237757.0204400018
 21
136789.016802449
 31
0.0
 12
237811.3100631216
 22
136814.5635600027
 32
0.0
 13
237818.5453989208
 23
136797.8436855276
 33
0.0
  0
3DFACE
  5
F71C
330
2
100
AcDbEntity
  8
0
370
     5
100
AcDbFace
 10
237757.0204400018
 20
136789.016802449
 30
0.0
 11
237750.4607542313
 21
136801.8909106175
 31
0.0
 12
237803.0391549976
 22
136830.7961311297
 32
0.0
 13
237811.3100631216
 23
136814.5635600027
 33
0.0
  0
3DFACE
  5
F71D
330
2
100
AcDbEntity
  8
0
370
     5
100
AcDbFace
 10
237750.4607542313
 20
136801.8909106175
 30
0.0
 11
237743.1056405599
 21
136814.3277285956
 31
0.0
 12
237793.7653160446
 22
136846.477336366
 32
0.0
 13
237803.0391549976
 23
136830.7961311297
 33
0.0
  0
3DFACE
  5
F71E
330
2
100
AcDbEntity
  8
0
370
     5
100
AcDbFace
 10
237743.1056405599
 20
136814.3277285956
 30
0.0
 11
237734.9841262613
 21
136826.2781739445
 31
0.0
 12
237783.5251458683
 22
136861.5452891584
 32
0.0
 13
237793.7653160446
 23
136846.477336366
 33
0.0
  0
3DFACE
  5
F71F
330
2
100
AcDbEntity
  8
0
370
     5
100
AcDbFace
 10
237734.9841262613
 20
136826.2781739445
 30
0.0
 11
237726.128263242
 21
136837.6950837158
 31
0.0
 12
237772.3590577425
 22
136875.9405231806
 32
0.0
 13
237783.5251458683
 23
136861.5452891584
 33
0.0
  0
3DFACE
  5
F720
330
2
100
AcDbEntity
  8
0
370
     5
100
AcDbFace
 10
237726.128263242
 20
136837.6950837158
 30
0.0
 11
237716.5730015479
 21
136848.5334005822
 31
0.0
 12
237760.3111191157
 22
136889.6062270204
 32
0.0
 13
237772.3590577425
 23
136875.9405231806
 33
0.0
  0
3DFACE
  5
F721
330
2
100
AcDbEntity
  8
0
370
     5
100
AcDbFace
 10
237716.5730015479
 20
136848.5334005822
 30
0.0
 11
237706.3560514315
 21
136858.7503506584
 31
0.0
 12
237747.4288776979
 22
136902.4884683876
 32
0.0
 13
237760.3111191157
 23
136889.6062270204
 33
0.0
  0
3DFACE
  5
F722
330
2
100
AcDbEntity
  8
0
370
     5
100
AcDbFace
 10
237706.3560514315
 20
136858.7503506584
 30
0.0
 11
237695.5177345276
 21
136868.3056123099
 31
0.0
 12
237733.7631738107
 22
136914.5364069606
 32
0.0
 13
237747.4288776979
 23
136902.4884683876
 33
0.0
  0
3DFACE
  5
F723
330
2
100
AcDbEntity
  8
0
370
     5
100
AcDbFace
 10
237695.5177345276
 20
136868.3056123099
 30
0.0
 11
237684.1008247215
 21
136877.1614752843
 31
0.0
 12
237719.3679397446
 22
136925.70249503
 32
0.0
 13
237733.7631738107
 23
136914.5364069606
 33
0.0
  0
3DFACE
  5
F724
330
2
100
AcDbEntity
  8
0
370
     5
100
AcDbFace
 10
237684.1008247215
 20
136877.1614752843
 30
0.0
 11
237672.1503793407
 21
136885.282989536
 31
0.0
 12
237704.2999869121
 22
136935.942665147
 32
0.0
 13
237719.3679397446
 23
136925.70249503
 33
0.0
  0
3DFACE
  5
F725
330
2
100
AcDbEntity
  8
0
370
     5
100
AcDbFace
 10
237672.1503793407
 20
136885.282989536
 30
0.0
 11
237659.7135613337
 21
136892.6381031585
 31
0.0
 12
237688.6187816393
 22
136945.2165040384
 32
0.0
 13
237704.2999869121
 23
136935.942665147
 33
0.0
  0
3DFACE
  5
F726
330
2
100
AcDbEntity
  8
0
370
     5
100
AcDbFace
 10
237659.7135613337
 20
136892.6381031585
 30
0.0
 11
237646.8394531395
 21
136899.1977888784
 31
0.0
 12
237672.3862104797
 22
136953.4874120986
 32
0.0
 13
237688.6187816393
 23
136945.2165040384
 33
0.0
  0
3DFACE
  5
F727
330
2
100
AcDbEntity
  8
0
370
     5
100
AcDbFace
 10
237646.8394531395
 20
136899.1977888784
 30
0.0
 11
237633.5788629817
 21
136904.9361586129
 31
0.0
 12
237655.6663359762
 22
136960.7227478321
 32
0.0
 13
237672.3862104797
 23
136953.4874120986
 33
0.0
  0
3DFACE
  5
F728
330
2
100
AcDbEntity
  8
0
370
     5
100
AcDbFace
 10
237633.5788629817
 20
136904.9361586129
 30
0.0
 11
237619.9841243519
 21
136909.8305656381
 31
0.0
 12
237638.5251438351
 22
136966.8939566741
 32
0.0
 13
237655.6663359762
 23
136960.7227478321
 33
0.0
  0
3DFACE
  5
F729
330
2
100
AcDbEntity
  8
0
370
     5
100
AcDbFace
 10
237619.9841243519
 20
136909.8305656381
 30
0.0
 11
237606.1088894729
 21
136913.8616939654
 31
0.0
 12
237621.030282511
 22
136971.9766836824
 32
0.0
 13
237638.5251438351
 23
136966.8939566741
 33
0.0
  0
3DFACE
  5
F72A
330
2
100
AcDbEntity
  8
0
370
     5
100
AcDbFace
 10
237606.1088894729
 20
136913.8616939654
 30
0.0
 11
237592.007917558
 21
136917.013634573
 31
0.0
 12
237603.2507962293
 22
136975.9508696556
 32
0.0
 13
237621.030282511
 23
136971.9766836824
 33
0.0
  0
3DFACE
  5
F72B
330
2
100
AcDbEntity
  8
0
370
     5
100
AcDbFace
 10
237592.007917558
 20
136917.013634573
 30
0.0
 11
237577.7368587014
 21
136919.2739481911
 31
0.0
 12
237585.2568525
 22
136978.8008302971
 32
0.0
 13
237603.2507962293
 23
136975.9508696556
 33
0.0
  0
3DFACE
  5
F72C
330
2
100
AcDbEntity
  8
0
370
     5
100
AcDbFace
 10
237577.7368587014
 20
136919.2739481911
 30
0.0
 11
237563.3520342529
 21
136920.6337143945
 31
0.0
 12
237567.1194651988
 22
136980.5153181144
 32
0.0
 13
237585.2568525
 23
136978.8008302971
 33
0.0
  0
3DFACE
  5
F72D
330
2
100
AcDbEntity
  8
0
370
     5
100
AcDbFace
 10
237563.3520342529
 20
136920.6337143945
 30
0.0
 11
237548.9102145432
 21
136921.0875668072
 31
0.0
 12
237548.9102143074
 22
136981.0875668072
 32
0.0
 13
237567.1194651988
 23
136980.5153181144
 33
0.0
  0
3DFACE
  5
F72E
330
2
100
AcDbEntity
  8
0
370
     5
100
AcDbFace
 10
236888.910215447
 20
136659.7542305976
 30
0.0
 11
236888.910215447
 21
136678.4208972564
 31
0.0
 12
236828.910215447
 22
136686.4208972249
 32
0.0
 13
236828.910215447
 23
136663.7542305819
 33
0.0
  0
3DFACE
  5
F72F
330
2
100
AcDbEntity
  8
0
370
     5
100
AcDbFace
 10
236888.910215447
 20
136678.4208972564
 30
0.0
 11
236888.910215447
 21
136697.0875639152
 31
0.0
 12
236828.910215447
 22
136709.087563868
 32
0.0
 13
236828.910215447
 23
136686.4208972249
 33
0.0
  0
3DFACE
  5
F730
330
2
100
AcDbEntity
  8
0
370
     5
100
AcDbFace
 10
236888.910215447
 20
136697.0875639152
 30
0.0
 11
236888.910215447
 21
136715.754230574
 31
0.0
 12
236828.910215447
 22
136731.7542305111
 32
0.0
 13
236828.910215447
 23
136709.087563868
 33
0.0
  0
3DFACE
  5
F731
330
2
100
AcDbEntity
  8
0
370
     5
100
AcDbFace
 10
236888.910215447
 20
136715.754230574
 30
0.0
 11
236888.910215447
 21
136734.4208972328
 31
0.0
 12
236828.910215447
 22
136754.4208971542
 32
0.0
 13
236828.910215447
 23
136731.7542305111
 33
0.0
  0
3DFACE
  5
F732
330
2
100
AcDbEntity
  8
0
370
     5
100
AcDbFace
 10
236888.910215447
 20
136734.4208972328
 30
0.0
 11
236888.910215447
 21
136753.0875638916
 31
0.0
 12
236828.910215447
 22
136777.0875637973
 32
0.0
 13
236828.910215447
 23
136754.4208971542
 33
0.0
  0
3DFACE
  5
F733
330
2
100
AcDbEntity
  8
0
370
     5
100
AcDbFace
 10
236888.910215447
 20
136753.0875638916
 30
0.0
 11
236888.910215447
 21
136771.7542305504
 31
0.0
 12
236828.910215447
 22
136799.7542304404
 32
0.0
 13
236828.910215447
 23
136777.0875637973
 33
0.0
  0
3DFACE
  5
F734
330
2
100
AcDbEntity
  8
0
370
     5
100
AcDbFace
 10
236888.910215447
 20
136771.7542305504
 30
0.0
 11
236888.910215447
 21
136790.4208972092
 31
0.0
 12
236828.910215447
 22
136822.4208970835
 32
0.0
 13
236828.910215447
 23
136799.7542304404
 33
0.0
  0
3DFACE
  5
F735
330
2
100
AcDbEntity
  8
0
370
     5
100
AcDbFace
 10
236888.910215447
 20
136790.4208972092
 30
0.0
 11
236888.910215447
 21
136809.087563868
 31
0.0
 12
236828.910215447
 22
136845.0875637266
 32
0.0
 13
236828.910215447
 23
136822.4208970835
 33
0.0
  0
3DFACE
  5
F736
330
2
100
AcDbEntity
  8
0
370
     5
100
AcDbFace
 10
236888.910215447
 20
136809.087563868
 30
0.0
 11
236888.910215447
 21
136827.7542305269
 31
0.0
 12
236828.910215447
 22
136867.7542303697
 32
0.0
 13
236828.910215447
 23
136845.0875637266
 33
0.0
  0
3DFACE
  5
F737
330
2
100
AcDbEntity
  8
0
370
     5
100
AcDbFace
 10
236888.910215447
 20
136827.7542305269
 30
0.0
 11
236888.910215447
 21
136846.4208971857
 31
0.0
 12
236828.910215447
 22
136890.4208970128
 32
0.0
 13
236828.910215447
 23
136867.7542303697
 33
0.0
  0
3DFACE
  5
F738
330
2
100
AcDbEntity
  8
0
370
     5
100
AcDbFace
 10
236888.910215447
 20
136846.4208971857
 30
0.0
 11
236888.910215447
 21
136865.0875638445
 31
0.0
 12
236828.910215447
 22
136913.0875636559
 32
0.0
 13
236828.910215447
 23
136890.4208970128
 33
0.0
  0
3DFACE
  5
F739
330
2
100
AcDbEntity
  8
0
370
     5
100
AcDbFace
 10
236888.910215447
 20
136865.0875638445
 30
0.0
 11
236888.910215447
 21
136883.7542305033
 31
0.0
 12
236828.910215447
 22
136935.754230299
 32
0.0
 13
236828.910215447
 23
136913.0875636559
 33
0.0
  0
3DFACE
  5
F73A
330
2
100
AcDbEntity
  8
0
370
     5
100
AcDbFace
 10
236888.910215447
 20
136883.7542305033
 30
0.0
 11
236888.910215447
 21
136902.4208971621
 31
0.0
 12
236828.910215447
 22
136958.4208969421
 32
0.0
 13
236828.910215447
 23
136935.754230299
 33
0.0
  0
3DFACE
  5
F73B
330
2
100
AcDbEntity
  8
0
370
     5
100
AcDbFace
 10
236888.910215447
 20
136902.4208971621
 30
0.0
 11
236888.8931305562
 21
136921.0117362873
 31
0.0
 12
236828.910215447
 22
136981.0875635852
 32
0.0
 13
236828.910215447
 23
136958.4208969421
 33
0.0
  0
3DFACE
  5
F73C
330
2
100
AcDbEntity
  8
0
370
     5
100
AcDbFace
 10
236888.8931305562
 20
136921.0117362873
 30
0.0
 11
236901.4059444993
 21
136921.0117362873
 31
0.0
 12
236856.4059444993
 22
136981.0875636932
 32
0.0
 13
236828.910215447
 23
136981.0875635852
 33
0.0
  0
3DFACE
  5
F73D
330
2
100
AcDbEntity
  8
0
370
     5
100
AcDbFace
 10
236901.4059444993
 20
136921.0117362873
 30
0.0
 11
236913.9016735517
 21
136921.0117362873
 31
0.0
 12
236883.9016735517
 22
136981.0875638012
 32
0.0
 13
236856.4059444993
 23
136981.0875636932
 33
0.0
  0
3DFACE
  5
F73E
330
2
100
AcDbEntity
  8
0
370
     5
100
AcDbFace
 10
236913.9016735517
 20
136921.0117362873
 30
0.0
 11
236926.3974026043
 21
136921.0117362873
 31
0.0
 12
236911.397402604
 22
136981.0875639093
 32
0.0
 13
236883.9016735517
 23
136981.0875638012
 33
0.0
  0
3DFACE
  5
F73F
330
2
100
AcDbEntity
  8
0
370
     5
100
AcDbFace
 10
236926.3974026043
 20
136921.0117362873
 30
0.0
 11
236938.8931316564
 21
136921.0117362873
 31
0.0
 12
236938.8931316564
 22
136981.0875640173
 32
0.0
 13
236911.397402604
 23
136981.0875639093
 33
0.0
  0
LINE
  5
F740
330
2
100
AcDbEntity
  8
0
370
     5
100
AcDbLine
 10
236660.2499174178
 20
135650.1735996378
 30
0.0
 11
236619.3210402928
 21
135650.1735996378
 31
0.0
  0
ARC
  5
F741
330
2
100
AcDbEntity
  8
0
370
     5
100
AcDbCircle
 10
236619.3210402928
 20
135884.6906599319
 30
0.0
 40
234.5170602941534
100
AcDbArc
 50
190.7151938907823
 51
270.0
  0
LINE
  5
F742
330
2
100
AcDbEntity
  8
0
370
     5
100
AcDbLine
 10
236694.7855673365
 20
135710.1735996378
 30
0.0
 11
236619.3210402928
 21
135710.1735996378
 31
0.0
  0
ARC
  5
F743
330
2
100
AcDbEntity
  8
0
370
     5
100
AcDbCircle
 10
236619.360117657
 20
135884.8053226583
 30
0.0
 40
174.6317273927104
100
AcDbArc
 50
194.4977857564326
 51
269.9871789160653
  0
3DFACE
  5
F744
330
2
100
AcDbEntity
  8
0
370
     5
100
AcDbFace
 10
237838.9102183153
 20
136267.0875668072
 30
0.0
 11
237838.4961238784
 21
136244.3463819747
 31
0.0
 12
237777.9114676098
 22
136245.7000940876
 32
0.0
 13
237777.9567491445
 23
136267.0756616179
 33
0.0
  0
3DFACE
  5
F745
330
2
100
AcDbEntity
  8
0
370
     5
100
AcDbFace
 10
237838.4961238784
 20
136244.3463819747
 30
0.0
 11
237837.2438480158
 21
136221.6359269605
 31
0.0
 12
237777.274007573
 22
136224.2899083235
 32
0.0
 13
237777.9114676098
 23
136245.7000940876
 33
0.0
  0
3DFACE
  5
F746
330
2
100
AcDbEntity
  8
0
370
     5
100
AcDbFace
 10
237837.2438480158
 20
136221.6359269605
 30
0.0
 11
237835.1550936281
 21
136198.9870844537
 31
0.0
 12
237775.2235588697
 22
136202.9768511233
 32
0.0
 13
237777.274007573
 23
136224.2899083235
 33
0.0
  0
3DFACE
  5
F747
330
2
100
AcDbEntity
  8
0
370
     5
100
AcDbFace
 10
237835.1550936281
 20
136198.9870844537
 30
0.0
 11
237832.2327010967
 21
136176.43065336
 31
0.0
 12
237772.3551866909
 22
136181.7583877448
 32
0.0
 13
237775.2235588697
 23
136202.9768511233
 33
0.0
  0
3DFACE
  5
F748
330
2
100
AcDbEntity
  8
0
370
     5
100
AcDbFace
 10
237832.2327010967
 20
136176.43065336
 30
0.0
 11
237828.4806444211
 21
136153.9973069202
 31
0.0
 12
237768.6731327216
 22
136160.6658955813
 32
0.0
 13
237772.3551866909
 23
136181.7583877448
 33
0.0
  0
3DFACE
  5
F749
330
2
100
AcDbEntity
  8
0
370
     5
100
AcDbFace
 10
237828.4806444211
 20
136153.9973069202
 30
0.0
 11
237823.9040258154
 21
136131.7175509985
 31
0.0
 12
237764.1828419018
 22
136139.7305657426
 32
0.0
 13
237768.6731327216
 23
136160.6658955813
 33
0.0
  0
3DFACE
  5
F74A
330
2
100
AcDbEntity
  8
0
370
     5
100
AcDbFace
 10
237823.9040258154
 20
136131.7175509985
 30
0.0
 11
237818.5090687695
 21
136109.6216826005
 31
0.0
 12
237758.8909543738
 22
136118.9833569304
 32
0.0
 13
237764.1828419018
 23
136139.7305657426
 33
0.0
  0
3DFACE
  5
F74B
330
2
100
AcDbEntity
  8
0
370
     5
100
AcDbFace
 10
237818.5090687695
 20
136109.6216826005
 30
0.0
 11
237812.3031095865
 21
136087.739748673
 31
0.0
 12
237752.8052956638
 22
136098.4549496574
 32
0.0
 13
237758.8909543738
 23
136118.9833569304
 33
0.0
  0
3DFACE
  5
F74C
330
2
100
AcDbEntity
  8
0
370
     5
100
AcDbFace
 10
237812.3031095865
 20
136087.739748673
 30
0.0
 11
237805.2945874065
 21
136066.1015052452
 31
0.0
 12
237745.9348651089
 22
136078.1757008772
 32
0.0
 13
237752.8052956638
 23
136098.4549496574
 33
0.0
  0
3DFACE
  5
F74D
330
2
100
AcDbEntity
  8
0
370
     5
100
AcDbFace
 10
237805.2945874065
 20
136066.1015052452
 30
0.0
 11
237797.4930327302
 21
136044.7363769652
 31
0.0
 12
237738.2898225495
 22
136058.1755990933
 32
0.0
 13
237745.9348651089
 23
136078.1757008772
 33
0.0
  0
3DFACE
  5
F74E
330
2
100
AcDbEntity
  8
0
370
     5
100
AcDbFace
 10
237797.4930327302
 20
136044.7363769652
 30
0.0
 11
237788.9090544595
 21
136023.6734170869
 31
0.0
 12
237729.8814733051
 22
136038.4842200129
 32
0.0
 13
237738.2898225495
 23
136058.1755990933
 33
0.0
  0
3DFACE
  5
F74F
330
2
100
AcDbEntity
  8
0
370
     5
100
AcDbFace
 10
237788.9090544595
 20
136023.6734170869
 30
0.0
 11
237779.5543254708
 21
136002.941267962
 31
0.0
 12
237720.7222514563
 22
136019.130682811
 32
0.0
 13
237729.8814733051
 23
136038.4842200129
 33
0.0
  0
3DFACE
  5
F750
330
2
100
AcDbEntity
  8
0
370
     5
100
AcDbFace
 10
237779.5543254708
 20
136002.941267962
 30
0.0
 11
237769.4415667415
 21
135982.5681220912
 31
0.0
 12
237710.8257014572
 22
136000.1436070694
 32
0.0
 13
237720.7222514563
 23
136019.130682811
 33
0.0
  0
3DFACE
  5
F751
330
2
100
AcDbEntity
  8
0
370
     5
100
AcDbFace
 10
237769.4415667415
 20
135982.5681220912
 30
0.0
 11
237758.5845300518
 21
135962.5816837865
 31
0.0
 12
237700.2064581065
 22
135981.5510704549
 32
0.0
 13
237710.8257014572
 23
136000.1436070694
 33
0.0
  0
3DFACE
  5
F752
330
2
100
AcDbEntity
  8
0
370
     5
100
AcDbFace
 10
237758.5845300518
 20
135962.5816837865
 30
0.0
 11
237746.9979792842
 21
135943.0091314977
 31
0.0
 12
237688.8802249061
 22
135963.3805671984
 32
0.0
 13
237700.2064581065
 23
135981.5510704549
 33
0.0
  0
3DFACE
  5
F753
330
2
100
AcDbEntity
  8
0
370
     5
100
AcDbFace
 10
237746.9979792842
 20
135943.0091314977
 30
0.0
 11
237734.697670347
 21
135923.8770808538
 31
0.0
 12
237676.8637508386
 22
135945.6589674375
 32
0.0
 13
237688.8802249061
 23
135963.3805671984
 33
0.0
  0
3DFACE
  5
F754
330
2
100
AcDbEntity
  8
0
370
     5
100
AcDbFace
 10
237734.697670347
 20
135923.8770808538
 30
0.0
 11
237721.7003297486
 21
135905.2115484704
 31
0.0
 12
237664.1748055994
 22
135928.4124774811
 32
0.0
 13
237676.8637508386
 23
135945.6589674375
 33
0.0
  0
3DFACE
  5
F755
330
2
100
AcDbEntity
  8
0
370
     5
100
AcDbFace
 10
237721.7003297486
 20
135905.2115484704
 30
0.0
 11
237708.0236318521
 21
135887.0379165704
 31
0.0
 12
237650.8321533194
 22
135911.6666010562
 32
0.0
 13
237664.1748055994
 23
135928.4124774811
 33
0.0
  0
3DFACE
  5
F756
330
2
100
AcDbEntity
  8
0
370
     5
100
AcDbFace
 10
237708.0236318521
 20
135887.0379165704
 30
0.0
 11
237693.6861748411
 21
135869.3808984686
 31
0.0
 12
237636.8555248172
 22
135895.4461015937
 32
0.0
 13
237650.8321533194
 23
135911.6666010562
 33
0.0
  0
3DFACE
  5
F757
330
2
100
AcDbEntity
  8
0
370
     5
100
AcDbFace
 10
237693.6861748411
 20
135869.3808984686
 30
0.0
 11
237678.7074554287
 21
135852.2645049655
 31
0.0
 12
237622.2655884211
 22
135879.7749656087
 32
0.0
 13
237636.8555248172
 23
135895.4461015937
 33
0.0
  0
3DFACE
  5
F758
330
2
100
AcDbEntity
  8
0
370
     5
100
AcDbFace
 10
237678.7074554287
 20
135852.2645049655
 30
0.0
 11
237663.1078423454
 21
135835.7120116959
 31
0.0
 12
237607.0839194058
 22
135864.6763672297
 32
0.0
 13
237622.2655884211
 23
135879.7749656087
 33
0.0
  0
3DFACE
  5
F759
330
2
100
AcDbEntity
  8
0
370
     5
100
AcDbFace
 10
237663.1078423454
 20
135835.7120116959
 30
0.0
 11
237646.9085486404
 21
135819.7459274781
 31
0.0
 12
237591.3329680868
 22
135850.1726339294
 32
0.0
 13
237607.0839194058
 23
135864.6763672297
 33
0.0
  0
3DFACE
  5
F75A
330
2
100
AcDbEntity
  8
0
370
     5
100
AcDbFace
 10
237646.9085486404
 20
135819.7459274781
 30
0.0
 11
237630.1316028356
 21
135804.3879637052
 31
0.0
 12
237575.0360266218
 22
135836.285213507
 32
0.0
 13
237591.3329680868
 23
135850.1726339294
 33
0.0
  0
3DFACE
  5
F75B
330
2
100
AcDbEntity
  8
0
370
     5
100
AcDbFace
 10
237630.1316028356
 20
135804.3879637052
 30
0.0
 11
237612.7998189696
 21
135789.659004821
 31
0.0
 12
237558.2171945666
 22
135823.034642372
 32
0.0
 13
237575.0360266218
 23
135836.285213507
 33
0.0
  0
3DFACE
  5
F75C
330
2
100
AcDbEntity
  8
0
370
     5
100
AcDbFace
 10
237612.7998189696
 20
135789.659004821
 30
0.0
 11
237594.936765575
 21
135775.5790799203
 31
0.0
 12
237540.9013432373
 22
135810.4405151754
 32
0.0
 13
237558.2171945666
 23
135823.034642372
 33
0.0
  0
3DFACE
  5
F75D
330
2
100
AcDbEntity
  8
0
370
     5
100
AcDbFace
 10
237594.936765575
 20
135775.5790799203
 30
0.0
 11
237576.5667336279
 21
135762.1673355128
 31
0.0
 12
237523.1140789311
 22
135798.5214558333
 32
0.0
 13
237540.9013432373
 23
135810.4405151754
 33
0.0
  0
3DFACE
  5
F75E
330
2
100
AcDbEntity
  8
0
370
     5
100
AcDbFace
 10
237576.5667336279
 20
135762.1673355128
 30
0.0
 11
237557.7147035169
 21
135749.4420094863
 31
0.0
 12
237504.88170506
 22
135787.2950899865
 32
0.0
 13
237523.1140789311
 23
135798.5214558333
 33
0.0
  0
3DFACE
  5
F75F
330
2
100
AcDbEntity
  8
0
370
     5
100
AcDbFace
 10
237557.7147035169
 20
135749.4420094863
 30
0.0
 11
237538.4063110727
 21
135737.4204063066
 31
0.0
 12
237486.2311832545
 22
135776.7780189358
 32
0.0
 13
237504.88170506
 23
135787.2950899865
 33
0.0
  0
3DFACE
  5
F760
330
2
100
AcDbEntity
  8
0
370
     5
100
AcDbFace
 10
237538.4063110727
 20
135737.4204063066
 30
0.0
 11
237518.6678127083
 21
135726.1188734854
 31
0.0
 12
237467.1900934928
 22
135766.985795093
 32
0.0
 13
237486.2311832545
 23
135776.7780189358
 33
0.0
  0
3DFACE
  5
F761
330
2
100
AcDbEntity
  8
0
370
     5
100
AcDbFace
 10
237518.6678127083
 20
135726.1188734854
 30
0.0
 11
237498.5260497136
 21
135715.552779351
 31
0.0
 12
237447.7865933164
 22
135757.9328989815
 32
0.0
 13
237467.1900934928
 23
135766.985795093
 33
0.0
  0
3DFACE
  5
F762
330
2
100
AcDbEntity
  8
0
370
     5
100
AcDbFace
 10
237498.5260497136
 20
135715.552779351
 30
0.0
 11
237478.008411756
 21
135705.7364921493
 31
0.0
 12
237428.0493761912
 22
135749.6327178234
 32
0.0
 13
237447.7865933164
 23
135757.9328989815
 33
0.0
  0
3DFACE
  5
F763
330
2
100
AcDbEntity
  8
0
370
     5
100
AcDbFace
 10
237478.008411756
 20
135705.7364921493
 30
0.0
 11
237457.1427996341
 21
135696.6833605051
 31
0.0
 12
237408.0076290765
 22
135742.0975257428
 32
0.0
 13
237428.0493761912
 23
135749.6327178234
 33
0.0
  0
3DFACE
  5
F764
330
2
100
AcDbEntity
  8
0
370
     5
100
AcDbFace
 10
237457.1427996341
 20
135696.6833605051
 30
0.0
 11
237435.9575873375
 21
135688.4056952704
 31
0.0
 12
237387.6909892637
 22
135735.3384656145
 32
0.0
 13
237408.0076290765
 23
135742.0975257428
 33
0.0
  0
3DFACE
  5
F765
330
2
100
AcDbEntity
  8
0
370
     5
100
AcDbFace
 10
237435.9575873375
 20
135688.4056952704
 30
0.0
 11
237414.4815834624
 21
135680.9147527835
 31
0.0
 12
237367.1295005493
 22
135729.365532587
 32
0.0
 13
237387.6909892637
 23
135735.3384656145
 33
0.0
  0
3DFACE
  5
F766
330
2
100
AcDbEntity
  8
0
370
     5
100
AcDbFace
 10
237414.4815834624
 20
135680.9147527835
 30
0.0
 11
237392.7439920361
 21
135674.2207195618
 31
0.0
 12
237346.3535688072
 22
135724.1875593011
 32
0.0
 13
237367.1295005493
 23
135729.365532587
 33
0.0
  0
3DFACE
  5
F767
330
2
100
AcDbEntity
  8
0
370
     5
100
AcDbFace
 10
237392.7439920361
 20
135674.2207195618
 30
0.0
 11
237359.1810668836
 21
135666.4008097146
 31
0.0
 12
237316.2780366068
 22
135718.7037629995
 32
0.0
 13
237346.3535688072
 23
135724.1875593011
 33
0.0
  0
3DFACE
  5
F768
330
2
100
AcDbEntity
  8
0
370
     5
100
AcDbFace
 10
237359.1810668836
 20
135666.4008097146
 30
0.0
 11
237322.340206036
 21
135660.261711465
 31
0.0
 12
237284.0389237079
 22
135714.7836680475
 32
0.0
 13
237316.2780366068
 23
135718.7037629995
 33
0.0
  0
3DFACE
  5
F769
330
2
100
AcDbEntity
  8
0
370
     5
100
AcDbFace
 10
237322.340206036
 20
135660.261711465
 30
0.0
 11
237284.3781951697
 21
135655.9296020483
 31
0.0
 12
237247.7302001343
 22
135712.1608357878
 32
0.0
 13
237284.0389237079
 23
135714.7836680475
 33
0.0
  0
3DFACE
  5
F76A
330
2
100
AcDbEntity
  8
0
370
     5
100
AcDbFace
 10
237284.3781951697
 20
135655.9296020483
 30
0.0
 11
237242.4975634471
 21
135652.853591304
 31
0.0
 12
237212.4127424093
 22
135710.8276469884
 32
0.0
 13
237247.7302001343
 23
135712.1608357878
 33
0.0
  0
3DFACE
  5
F76B
330
2
100
AcDbEntity
  8
0
370
     5
100
AcDbFace
 10
237242.4975634471
 20
135652.853591304
 30
0.0
 11
237208.0535053561
 21
135651.3214692415
 31
0.0
 12
237177.7696098125
 22
135710.312752659
 32
0.0
 13
237212.4127424093
 23
135710.8276469884
 33
0.0
  0
3DFACE
  5
F76C
330
2
100
AcDbEntity
  8
0
370
     5
100
AcDbFace
 10
237208.0535053561
 20
135651.3214692415
 30
0.0
 11
237172.5152038719
 21
135650.5133697735
 31
0.0
 12
237142.2485317558
 22
135710.2357718606
 32
0.0
 13
237177.7696098125
 23
135710.312752659
 33
0.0
  0
3DFACE
  5
F76D
330
2
100
AcDbEntity
  8
0
370
     5
100
AcDbFace
 10
236450.2891332113
 20
135841.0875639014
 30
0.0
 11
236457.0847224242
 21
135820.2845018777
 31
0.0
 12
236395.1624207289
 22
135815.7619660213
 32
0.0
 13
236388.8931305562
 23
135841.0875639014
 33
0.0
  0
3DFACE
  5
F76E
330
2
100
AcDbEntity
  8
0
370
     5
100
AcDbFace
 10
236457.0847224242
 20
135820.2845018777
 30
0.0
 11
236466.428867843
 21
135800.4947477433
 31
0.0
 12
236404.2060265499
 22
135791.2894691931
 32
0.0
 13
236395.1624207289
 23
135815.7619660213
 33
0.0
  0
3DFACE
  5
F76F
330
2
100
AcDbEntity
  8
0
370
     5
100
AcDbFace
 10
236466.428867843
 20
135800.4947477433
 30
0.0
 11
236478.1748184477
 21
135782.0291021628
 31
0.0
 12
236415.9120191665
 22
135767.9729590744
 32
0.0
 13
236404.2060265499
 23
135791.2894691931
 33
0.0
  0
3DFACE
  5
F770
330
2
100
AcDbEntity
  8
0
370
     5
100
AcDbFace
 10
236478.1748184477
 20
135782.0291021628
 30
0.0
 11
236492.138102555
 21
135765.1775705038
 31
0.0
 12
236430.1355184997
 22
135746.1010141683
 32
0.0
 13
236415.9120191665
 23
135767.9729590744
 33
0.0
  0
3DFACE
  5
F771
330
2
100
AcDbEntity
  8
0
370
     5
100
AcDbFace
 10
236492.138102555
 20
135765.1775705038
 30
0.0
 11
236508.0994249702
 21
135750.2048082647
 31
0.0
 12
236446.7004863633
 22
135725.9443342103
 32
0.0
 13
236430.1355184997
 23
135746.1010141683
 33
0.0
  0
3DFACE
  5
F772
330
2
100
AcDbEntity
  8
0
370
     5
100
AcDbFace
 10
236508.0994249702
 20
135750.2048082647
 30
0.0
 11
236525.8081110472
 21
135737.3459646255
 31
0.0
 12
236465.401905214
 22
135707.752389833
 32
0.0
 13
236446.7004863633
 23
135725.9443342103
 33
0.0
  0
3DFACE
  5
F773
330
2
100
AcDbEntity
  8
0
370
     5
100
AcDbFace
 10
236525.8081110472
 20
135737.3459646255
 30
0.0
 11
236544.9860435659
 21
135726.8029893994
 31
0.0
 12
236486.0083155651
 22
135691.7503349744
 32
0.0
 13
236465.401905214
 23
135707.752389833
 33
0.0
  0
3DFACE
  5
F774
330
2
100
AcDbEntity
  8
0
370
     5
100
AcDbFace
 10
236544.9860435659
 20
135726.8029893994
 30
0.0
 11
236565.3320305998
 21
135718.7414613847
 31
0.0
 12
236508.2646806628
 22
135678.1362202441
 32
0.0
 13
236486.0083155651
 23
135691.7503349744
 33
0.0
  0
3DFACE
  5
F775
330
2
100
AcDbEntity
  8
0
370
     5
100
AcDbFace
 10
236565.3320305998
 20
135718.7414613847
 30
0.0
 11
236586.5265357738
 21
135713.2879879283
 31
0.0
 12
236531.8955429669
 22
135667.0785417346
 32
0.0
 13
236508.2646806628
 23
135678.1362202441
 33
0.0
  0
3DFACE
  5
F776
330
2
100
AcDbEntity
  8
0
370
     5
100
AcDbFace
 10
236586.5265357738
 20
135713.2879879283
 30
0.0
 11
236608.2366966253
 21
135710.5282165407
 31
0.0
 12
236556.6084333713
 22
135658.7141556176
 32
0.0
 13
236531.8955429669
 23
135667.0785417346
 33
0.0
  0
3DFACE
  5
F777
330
2
100
AcDbEntity
  8
0
370
     5
100
AcDbFace
 10
236608.2366966253
 20
135710.5282165407
 30
0.0
 11
236630.1283749506
 21
135710.1735996378
 31
0.0
 12
236582.0974909696
 22
135653.1465843333
 32
0.0
 13
236556.6084333713
 23
135658.7141556176
 33
0.0
  0
3DFACE
  5
F778
330
2
100
AcDbEntity
  8
0
370
     5
100
AcDbFace
 10
236630.1283749506
 20
135710.1735996378
 30
0.0
 11
236652.0275887688
 21
135710.1735996378
 31
0.0
 12
236608.0472485649
 22
135650.4447353375
 32
0.0
 13
236582.0974909696
 23
135653.1465843333
 33
0.0
  0
3DFACE
  5
F779
330
2
100
AcDbEntity
  8
0
370
     5
100
AcDbFace
 10
236652.0275887688
 20
135710.1735996378
 30
0.0
 11
236673.926802587
 21
135710.1735996378
 31
0.0
 12
236634.1464096302
 22
135650.1735996378
 32
0.0
 13
236608.0472485649
 23
135650.4447353375
 33
0.0
  0
3DFACE
  5
F77A
330
2
100
AcDbEntity
  8
0
370
     5
100
AcDbFace
 10
237117.5363436946
 20
135650.1735996378
 30
0.0
 11
237117.5363436946
 21
135650.1735996378
 31
0.0
 12
237102.3994011018
 22
135637.0626661899
 32
0.0
 13
237102.3994011018
 23
135637.0626661899
 33
0.0
  0
3DFACE
  5
F77B
330
2
100
AcDbEntity
  8
0
370
     5
100
AcDbFace
 10
237102.3994011018
 20
135637.0626661899
 30
0.0
 11
237102.3994011018
 21
135637.0626661899
 31
0.0
 12
237096.6617057829
 22
135643.6052537746
 32
0.0
 13
237096.6617057829
 23
135643.6052537746
 33
0.0
  0
3DFACE
  5
F77C
330
2
100
AcDbEntity
  8
0
370
     5
100
AcDbFace
 10
237096.6617057829
 20
135643.6052537746
 30
0.0
 11
237096.6617057829
 21
135643.6052537746
 31
0.0
 12
237080.458969737
 22
135667.8543619119
 32
0.0
 13
237080.458969737
 23
135667.8543619119
 33
0.0
  0
3DFACE
  5
F77D
330
2
100
AcDbEntity
  8
0
370
     5
100
AcDbFace
 10
237080.458969737
 20
135667.8543619119
 30
0.0
 11
237080.458969737
 21
135667.8543619119
 31
0.0
 12
237067.559994094
 22
135694.010897007
 32
0.0
 13
237067.559994094
 23
135694.010897007
 33
0.0
  0
3DFACE
  5
F77E
330
2
100
AcDbEntity
  8
0
370
     5
100
AcDbFace
 10
237067.559994094
 20
135694.010897007
 30
0.0
 11
237067.559994094
 21
135694.010897007
 31
0.0
 12
237058.1854839034
 22
135721.6273134927
 32
0.0
 13
237058.1854839034
 23
135721.6273134927
 33
0.0
  0
3DFACE
  5
F77F
330
2
100
AcDbEntity
  8
0
370
     5
100
AcDbFace
 10
237058.1854839034
 20
135721.6273134927
 30
0.0
 11
237058.1854839034
 21
135721.6273134927
 31
0.0
 12
237053.8931305562
 22
135741.0875639014
 32
0.0
 13
237053.8931305562
 23
135741.0875639014
 33
0.0
  0
3DFACE
  5
F780
330
2
100
AcDbEntity
  8
0
  6
ByBlock
370
     5
100
AcDbFace
 10
237053.8931305562
 20
135741.0875639014
 30
0.0
 11
237053.8931305562
 21
135741.0875639014
 31
0.0
 12
237073.8931305562
 22
135741.0875639014
 32
0.0
 13
237073.8931305562
 23
135741.0875639014
 33
0.0
  0
3DFACE
  5
F781
330
2
100
AcDbEntity
  8
0
370
     5
100
AcDbFace
 10
237073.8931305562
 20
135741.0875639014
 30
0.0
 11
237073.8931305562
 21
135741.0875639014
 31
0.0
 12
237076.9416655707
 22
135728.02292115
 32
0.0
 13
237076.9416655707
 23
135728.02292115
 33
0.0
  0
3DFACE
  5
F782
330
2
100
AcDbEntity
  8
0
370
     5
100
AcDbFace
 10
237076.9416655707
 20
135728.02292115
 30
0.0
 11
237076.9416655707
 21
135728.02292115
 31
0.0
 12
237085.6056069376
 22
135702.4997729183
 32
0.0
 13
237085.6056069376
 23
135702.4997729183
 33
0.0
  0
3DFACE
  5
F783
330
2
100
AcDbEntity
  8
0
370
     5
100
AcDbFace
 10
237085.6056069376
 20
135702.4997729183
 30
0.0
 11
237085.6056069376
 21
135702.4997729183
 31
0.0
 12
237097.5268664372
 22
135678.3258500341
 32
0.0
 13
237097.5268664372
 23
135678.3258500341
 33
0.0
  0
3DFACE
  5
F784
330
2
100
AcDbEntity
  8
0
370
     5
100
AcDbFace
 10
237097.5268664372
 20
135678.3258500341
 30
0.0
 11
237097.5268664372
 21
135678.3258500341
 31
0.0
 12
237112.5014680142
 22
135655.9147750202
 32
0.0
 13
237112.5014680142
 23
135655.9147750202
 33
0.0
  0
3DFACE
  5
F785
330
2
100
AcDbEntity
  8
0
370
     5
100
AcDbFace
 10
237112.5014680142
 20
135655.9147750202
 30
0.0
 11
237112.5014680142
 21
135655.9147750202
 31
0.0
 12
237117.5363436946
 22
135650.1735996378
 32
0.0
 13
237117.5363436946
 23
135650.1735996378
 33
0.0
  0
3DFACE
  5
F786
330
2
100
AcDbEntity
  8
0
370
     5
100
AcDbFace
 10
237053.8931305562
 20
135741.0875639014
 30
0.0
 11
237073.8931305562
 21
135741.0875639014
 31
0.0
 12
237076.9416655707
 22
135728.02292115
 32
0.0
 13
237076.9416655707
 23
135728.02292115
 33
0.0
 70
    12
  0
3DFACE
  5
F787
330
2
100
AcDbEntity
  8
0
370
     5
100
AcDbFace
 10
237053.8931305562
 20
135741.0875639014
 30
0.0
 11
237076.9416655707
 21
135728.02292115
 31
0.0
 12
237085.6056069376
 22
135702.4997729183
 32
0.0
 13
237085.6056069376
 23
135702.4997729183
 33
0.0
 70
    13
  0
3DFACE
  5
F788
330
2
100
AcDbEntity
  8
0
370
     5
100
AcDbFace
 10
237053.8931305562
 20
135741.0875639014
 30
0.0
 11
237085.6056069376
 21
135702.4997729183
 31
0.0
 12
237097.5268664372
 22
135678.3258500341
 32
0.0
 13
237097.5268664372
 23
135678.3258500341
 33
0.0
 70
    13
  0
3DFACE
  5
F789
330
2
100
AcDbEntity
  8
0
370
     5
100
AcDbFace
 10
237112.5014680142
 20
135655.9147750202
 30
0.0
 11
237058.1854839034
 21
135721.6273134927
 31
0.0
 12
237053.8931305562
 22
135741.0875639014
 32
0.0
 13
237097.5268664372
 23
135678.3258500341
 33
0.0
 70
     5
  0
3DFACE
  5
F78A
330
2
100
AcDbEntity
  8
0
370
     5
100
AcDbFace
 10
237067.559994094
 20
135694.010897007
 30
0.0
 11
237058.1854839034
 21
135721.6273134927
 31
0.0
 12
237112.5014680142
 22
135655.9147750202
 32
0.0
 13
237112.5014680142
 23
135655.9147750202
 33
0.0
 70
    14
  0
3DFACE
  5
F78B
330
2
100
AcDbEntity
  8
0
370
     5
100
AcDbFace
 10
237102.3994011018
 20
135637.0626661899
 30
0.0
 11
237096.6617057829
 21
135643.6052537746
 31
0.0
 12
237112.5014680142
 22
135655.9147750202
 32
0.0
 13
237117.5363436946
 23
135650.1735996378
 33
0.0
 70
     2
  0
3DFACE
  5
F78C
330
2
100
AcDbEntity
  8
0
370
     5
100
AcDbFace
 10
237096.6617057829
 20
135643.6052537746
 30
0.0
 11
237080.458969737
 21
135667.8543619119
 31
0.0
 12
237067.559994094
 22
135694.010897007
 32
0.0
 13
237112.5014680142
 23
135655.9147750202
 33
0.0
 70
    12
  0
3DFACE
  5
F78D
330
2
100
AcDbEntity
  8
0
370
     5
100
AcDbFace
 10
237102.3994011018
 20
135637.0626661899
 30
0.0
 11
237117.5363436946
 21
135650.1735996378
 31
0.0
 12
237112.5014680142
 22
135655.9147750202
 32
0.0
 13
237112.5014680142
 23
135655.9147750202
 33
0.0
 70
    12
  0
3DFACE
  5
F78E
330
2
100
AcDbEntity
  8
0
370
     5
100
AcDbFace
 10
237102.3994011018
 20
135637.0626661899
 30
0.0
 11
237112.5014680142
 21
135655.9147750202
 31
0.0
 12
237097.5268664372
 22
135678.3258500341
 32
0.0
 13
237097.5268664372
 23
135678.3258500341
 33
0.0
 70
    13
  0
3DFACE
  5
F78F
330
2
100
AcDbEntity
  8
0
370
     5
100
AcDbFace
 10
237102.3994011018
 20
135637.0626661899
 30
0.0
 11
237097.5268664372
 21
135678.3258500341
 31
0.0
 12
237085.6056069376
 22
135702.4997729183
 32
0.0
 13
237085.6056069376
 23
135702.4997729183
 33
0.0
 70
    13
  0
3DFACE
  5
F790
330
2
100
AcDbEntity
  8
0
370
     5
100
AcDbFace
 10
237076.9416655707
 20
135728.02292115
 30
0.0
 11
237096.6617057829
 21
135643.6052537746
 31
0.0
 12
237102.3994011018
 22
135637.0626661899
 32
0.0
 13
237085.6056069376
 23
135702.4997729183
 33
0.0
 70
     5
  0
3DFACE
  5
F791
330
2
100
AcDbEntity
  8
0
370
     5
100
AcDbFace
 10
237080.458969737
 20
135667.8543619119
 30
0.0
 11
237096.6617057829
 21
135643.6052537746
 31
0.0
 12
237076.9416655707
 22
135728.02292115
 32
0.0
 13
237076.9416655707
 23
135728.02292115
 33
0.0
 70
    14
  0
3DFACE
  5
F792
330
2
100
AcDbEntity
  8
0
370
     5
100
AcDbFace
 10
237053.8931305562
 20
135741.0875639014
 30
0.0
 11
237058.1854839034
 21
135721.6273134927
 31
0.0
 12
237076.9416655707
 22
135728.02292115
 32
0.0
 13
237073.8931305562
 23
135741.0875639014
 33
0.0
 70
     2
  0
3DFACE
  5
F793
330
2
100
AcDbEntity
  8
0
370
     5
100
AcDbFace
 10
237058.1854839034
 20
135721.6273134927
 30
0.0
 11
237067.559994094
 21
135694.010897007
 31
0.0
 12
237080.458969737
 22
135667.8543619119
 32
0.0
 13
237076.9416655707
 23
135728.02292115
 33
0.0
 70
    12
  0
LINE
  5
F794
330
2
100
AcDbEntity
  8
0
370
     5
380
     1
100
AcDbLine
 10
237438.8931305562
 20
135871.0875639014
 30
0.0
 11
237569.5481207174
 21
135871.0875639014
 31
0.0
  0
ARC
  5
F795
330
2
100
AcDbEntity
  8
0
370
     5
380
     1
100
AcDbCircle
 10
237214.1078736733
 20
136271.0326272631
 30
0.0
 40
535.0643166257945
100
AcDbArc
 50
311.6282189928834
 51
354.1511396695004
  0
LINE
  5
F796
330
2
100
AcDbEntity
  8
0
370
     5
380
     1
100
AcDbLine
 10
237746.3867358623
 20
136216.5070755189
 30
0.0
 11
237748.8931334246
 21
136708.045848778
 31
0.0
  0
ARC
  5
F797
330
2
100
AcDbEntity
  8
0
370
     5
380
     1
100
AcDbCircle
 10
237548.2685463743
 20
136689.6377362639
 30
0.0
 40
201.467326222969
100
AcDbArc
 50
5.24243933929584
 51
88.25597030445257
  0
LINE
  5
F798
330
2
100
AcDbEntity
  8
0
370
     5
380
     1
100
AcDbLine
 10
237554.4000755462
 20
136891.0117362874
 30
0.0
 11
236918.8931305562
 21
136891.0117362873
 31
0.0
  0
LINE
  5
F799
330
2
100
AcDbEntity
  8
0
370
     5
380
     1
100
AcDbLine
 10
236918.8931305562
 20
136891.0117362873
 30
0.0
 11
236918.8931305562
 21
136641.0875639014
 31
0.0
  0
LINE
  5
F79A
330
2
100
AcDbEntity
  8
0
370
     5
380
     1
100
AcDbLine
 10
237438.8931305562
 20
135841.0307193568
 30
0.0
 11
237580.510426988
 21
135840.9502176496
 31
0.0
  0
ARC
  5
F79B
330
2
100
AcDbEntity
  8
0
370
     5
380
     1
100
AcDbCircle
 10
237221.8134388628
 20
136267.1335099171
 30
0.0
 40
557.0419444692543
100
AcDbArc
 50
310.0856281224502
 51
356.0413545785861
  0
LINE
  5
F79C
330
2
100
AcDbEntity
  8
0
370
     5
380
     1
100
AcDbLine
 10
237777.526358564
 20
136228.6773169786
 30
0.0
 11
237777.8887541077
 21
136234.9779751961
 31
0.0
  0
ARC
  5
F79D
330
2
100
AcDbEntity
  8
0
370
     5
380
     1
100
AcDbCircle
 10
237548.2685463743
 20
136689.6377362639
 30
0.0
 40
231.4673262229683
100
AcDbArc
 50
4.889099455409287
 51
88.37291902826558
  0
LINE
  5
F79E
330
2
100
AcDbEntity
  8
0
370
     5
380
     1
100
AcDbLine
 10
237554.8408535761
 20
136921.0117362874
 30
0.0
 11
237140.8965481866
 21
136921.0117362873
 31
0.0
  0
LINE
  5
F79F
330
2
100
AcDbEntity
  8
0
370
     5
100
AcDbLine
 10
237120.8965481866
 20
136921.0117362873
 30
0.0
 11
236958.8931305562
 21
136921.0117362873
 31
0.0
  0
LINE
  5
F7A0
330
2
100
AcDbEntity
  8
0
370
     5
100
AcDbLine
 10
236938.8931305562
 20
136921.0117362873
 30
0.0
 11
236888.8931305562
 21
136921.0117362873
 31
0.0
  0
LINE
  5
F7A1
330
2
100
AcDbEntity
  8
0
370
     5
380
     1
100
AcDbLine
 10
236888.8931305562
 20
136921.0117362873
 30
0.0
 11
236888.8931305562
 21
136641.0875639014
 31
0.0
  0
HATCH
  5
F7A2
330
2
100
AcDbEntity
  8
0
370
     5
100
AcDbHatch
 10
0.0
 20
0.0
 30
0.0
210
0.0
220
0.0
230
1.0
  2
SOLID
 70
     1
 71
     0
 91
        1
 92
        7
 72
     0
 73
     1
 93
        6
 10
237438.8931305562
 20
136077.6093000973
 10
237438.8931305562
 20
136157.6093000973
 10
237378.8931305563
 20
136157.6093000973
 10
237378.8931305562
 20
136143.6490933153
 10
237378.8931305562
 20
135901.0875639014
 10
237438.8931305562
 20
135901.0875639014
 97
        0
 75
     0
 76
     1
 47
2.99513656132331
 98
        1
 10
237419.8295910703
 20
136053.6162583003
1001
ACAD
1010
0.0
1020
0.0
1030
0.0
  0
LINE
  5
F7A3
330
2
100
AcDbEntity
  8
0
  6
ByBlock
370
     5
380
     1
100
AcDbLine
 10
237438.8931305562
 20
135841.0307193568
 30
0.0
 11
237438.8931305563
 21
136157.6093000973
 31
0.0
  0
HATCH
  5
F7A4
330
2
100
AcDbEntity
  8
0
370
     5
100
AcDbHatch
 10
0.0
 20
0.0
 30
0.0
210
0.0
220
0.0
230
1.0
  2
SOLID
 70
     1
 71
     0
 91
        1
 92
        7
 72
     0
 73
     1
 93
       15
 10
237438.8931305562
 20
136641.0875639014
 10
237158.8931305562
 20
136641.0875639014
 10
236813.8931305562
 20
136641.0875639014
 10
236479.8931305562
 20
136641.0875639014
 10
236338.8931305562
 20
136641.0875639014
 10
236338.8931305562
 20
136576.0875639014
 10
236213.8931305562
 20
136576.0875639014
 10
236213.8931305562
 20
136516.0875639014
 10
236398.8931305562
 20
136516.0875639014
 10
236398.8931305562
 20
136581.0875639014
 10
236813.8931305562
 20
136581.0875639014
 10
237158.8931305562
 20
136581.0875639014
 10
237378.8931305562
 20
136581.0875639014
 10
237378.8931305562
 20
136317.6093000973
 10
237438.8931305562
 20
136317.6093000973
 97
        0
 75
     0
 76
     1
 47
1.171123118408628
 98
        1
 10
237417.3779868879
 20
136382.5582177932
1001
ACAD
1010
0.0
1020
0.0
1030
0.0
  0
LINE
  5
F7A5
330
2
100
AcDbEntity
  8
0
  6
ByBlock
370
     5
100
AcDbLine
 10
237438.8931305563
 20
136317.6093000973
 30
0.0
 11
237438.8931305562
 21
136641.0875639014
 31
0.0
  0
LINE
  5
F7A6
330
2
100
AcDbEntity
  8
0
370
     5
380
     1
100
AcDbLine
 10
236958.8931305562
 20
136951.0875640586
 30
0.0
 11
237120.8965481866
 21
136951.0875640586
 31
0.0
  0
LINE
  5
F7A7
330
2
100
AcDbEntity
  8
0
370
     5
380
     1
100
AcDbLine
 10
237073.8931305562
 20
135841.0875639014
 30
0.0
 11
237073.8931305562
 21
135741.0875639014
 31
0.0
  0
LINE
  5
F7A8
330
2
100
AcDbEntity
  8
0
370
     5
380
     1
100
AcDbLine
 10
237053.8931305562
 20
135741.0875639014
 30
0.0
 11
237053.8931305562
 21
135841.0875639014
 31
0.0
  0
3DFACE
  5
F7A9
330
2
100
AcDbEntity
  8
0
370
     5
380
     1
100
AcDbFace
 10
236660.2499174178
 20
135650.1735996378
 30
0.0
 11
236675.3868600106
 21
135637.0626661899
 31
0.0
 12
236675.3868600106
 22
135637.0626661899
 32
0.0
 13
236660.2499174178
 23
135650.1735996378
 33
0.0
  0
3DFACE
  5
F7AA
330
2
100
AcDbEntity
  8
0
370
     5
380
     1
100
AcDbFace
 10
236675.3868600106
 20
135637.0626661899
 30
0.0
 11
236681.1245553295
 21
135643.6052537746
 31
0.0
 12
236681.1245553295
 22
135643.6052537746
 32
0.0
 13
236675.3868600106
 23
135637.0626661899
 33
0.0
  0
3DFACE
  5
F7AB
330
2
100
AcDbEntity
  8
0
370
     5
380
     1
100
AcDbFace
 10
236681.1245553295
 20
135643.6052537746
 30
0.0
 11
236697.3272913754
 21
135667.8543619119
 31
0.0
 12
236697.3272913754
 22
135667.8543619119
 32
0.0
 13
236681.1245553295
 23
135643.6052537746
 33
0.0
  0
3DFACE
  5
F7AC
330
2
100
AcDbEntity
  8
0
370
     5
380
     1
100
AcDbFace
 10
236697.3272913754
 20
135667.8543619119
 30
0.0
 11
236710.2262670184
 21
135694.010897007
 31
0.0
 12
236710.2262670184
 22
135694.010897007
 32
0.0
 13
236697.3272913754
 23
135667.8543619119
 33
0.0
  0
3DFACE
  5
F7AD
330
2
100
AcDbEntity
  8
0
  6
ByBlock
370
     5
380
     1
100
AcDbFace
 10
236723.8931305562
 20
135741.0875639014
 30
0.0
 11
236703.8931305562
 21
135741.0875639014
 31
0.0
 12
236703.8931305562
 22
135741.0875639014
 32
0.0
 13
236723.8931305562
 23
135741.0875639014
 33
0.0
  0
3DFACE
  5
F7AE
330
2
100
AcDbEntity
  8
0
370
     5
380
     1
100
AcDbFace
 10
236703.8931305562
 20
135741.0875639014
 30
0.0
 11
236700.8445955417
 21
135728.02292115
 31
0.0
 12
236700.8445955417
 22
135728.02292115
 32
0.0
 13
236703.8931305562
 23
135741.0875639014
 33
0.0
  0
3DFACE
  5
F7AF
330
2
100
AcDbEntity
  8
0
370
     5
380
     1
100
AcDbFace
 10
236700.8445955417
 20
135728.02292115
 30
0.0
 11
236692.1806541748
 21
135702.4997729183
 31
0.0
 12
236692.1806541748
 22
135702.4997729183
 32
0.0
 13
236700.8445955417
 23
135728.02292115
 33
0.0
  0
3DFACE
  5
F7B0
330
2
100
AcDbEntity
  8
0
370
     5
380
     1
100
AcDbFace
 10
236692.1806541748
 20
135702.4997729183
 30
0.0
 11
236680.2593946752
 21
135678.3258500341
 31
0.0
 12
236680.2593946752
 22
135678.3258500341
 32
0.0
 13
236692.1806541748
 23
135702.4997729183
 33
0.0
  0
3DFACE
  5
F7B1
330
2
100
AcDbEntity
  8
0
370
     5
380
     1
100
AcDbFace
 10
236680.2593946752
 20
135678.3258500341
 30
0.0
 11
236665.2847930982
 21
135655.9147750202
 31
0.0
 12
236665.2847930982
 22
135655.9147750202
 32
0.0
 13
236680.2593946752
 23
135678.3258500341
 33
0.0
  0
3DFACE
  5
F7B2
330
2
100
AcDbEntity
  8
0
370
     5
380
     1
100
AcDbFace
 10
236665.2847930982
 20
135655.9147750202
 30
0.0
 11
236660.2499174178
 21
135650.1735996378
 31
0.0
 12
236660.2499174178
 22
135650.1735996378
 32
0.0
 13
236665.2847930982
 23
135655.9147750202
 33
0.0
  0
3DFACE
  5
F7B3
330
2
100
AcDbEntity
  8
0
370
     5
380
     1
100
AcDbFace
 10
236675.3868600106
 20
135637.0626661899
 30
0.0
 11
236660.2499174178
 21
135650.1735996378
 31
0.0
 12
236665.2847930982
 22
135655.9147750202
 32
0.0
 13
236665.2847930982
 23
135655.9147750202
 33
0.0
 70
    12
  0
3DFACE
  5
F7B4
330
2
100
AcDbEntity
  8
0
370
     5
380
     1
100
AcDbFace
 10
236675.3868600106
 20
135637.0626661899
 30
0.0
 11
236665.2847930982
 21
135655.9147750202
 31
0.0
 12
236680.2593946752
 22
135678.3258500341
 32
0.0
 13
236680.2593946752
 23
135678.3258500341
 33
0.0
 70
    13
  0
3DFACE
  5
F7B5
330
2
100
AcDbEntity
  8
0
370
     5
380
     1
100
AcDbFace
 10
236675.3868600106
 20
135637.0626661899
 30
0.0
 11
236680.2593946752
 21
135678.3258500341
 31
0.0
 12
236692.1806541748
 22
135702.4997729183
 32
0.0
 13
236692.1806541748
 23
135702.4997729183
 33
0.0
 70
    13
  0
3DFACE
  5
F7B6
330
2
100
AcDbEntity
  8
0
370
     5
380
     1
100
AcDbFace
 10
236700.8445955417
 20
135728.02292115
 30
0.0
 11
236681.1245553295
 21
135643.6052537746
 31
0.0
 12
236675.3868600106
 22
135637.0626661899
 32
0.0
 13
236692.1806541748
 23
135702.4997729183
 33
0.0
 70
     5
  0
3DFACE
  5
F7B7
330
2
100
AcDbEntity
  8
0
370
     5
380
     1
100
AcDbFace
 10
236697.3272913754
 20
135667.8543619119
 30
0.0
 11
236681.1245553295
 21
135643.6052537746
 31
0.0
 12
236700.8445955417
 22
135728.02292115
 32
0.0
 13
236700.8445955417
 23
135728.02292115
 33
0.0
 70
    14
  0
3DFACE
  5
F7B8
330
2
100
AcDbEntity
  8
0
370
     5
380
     1
100
AcDbFace
 10
236723.8931305562
 20
135741.0875639014
 30
0.0
 11
236703.8931305562
 21
135741.0875639014
 31
0.0
 12
236700.8445955417
 22
135728.02292115
 32
0.0
 13
236700.8445955417
 23
135728.02292115
 33
0.0
 70
    12
  0
3DFACE
  5
F7B9
330
2
100
AcDbEntity
  8
0
370
     5
380
     1
100
AcDbFace
 10
236723.8931305562
 20
135741.0875639014
 30
0.0
 11
236700.8445955417
 21
135728.02292115
 31
0.0
 12
236692.1806541748
 22
135702.4997729183
 32
0.0
 13
236692.1806541748
 23
135702.4997729183
 33
0.0
 70
    13
  0
3DFACE
  5
F7BA
330
2
100
AcDbEntity
  8
0
370
     5
380
     1
100
AcDbFace
 10
236723.8931305562
 20
135741.0875639014
 30
0.0
 11
236692.1806541748
 21
135702.4997729183
 31
0.0
 12
236680.2593946752
 22
135678.3258500341
 32
0.0
 13
236680.2593946752
 23
135678.3258500341
 33
0.0
 70
    13
  0
3DFACE
  5
F7BB
330
2
100
AcDbEntity
  8
0
370
     5
380
     1
100
AcDbFace
 10
236675.3868600106
 20
135637.0626661899
 30
0.0
 11
236681.1245553295
 21
135643.6052537746
 31
0.0
 12
236665.2847930982
 22
135655.9147750202
 32
0.0
 13
236660.2499174178
 23
135650.1735996378
 33
0.0
 70
     2
  0
3DFACE
  5
F7BC
330
2
100
AcDbEntity
  8
0
370
     5
380
     1
100
AcDbFace
 10
236681.1245553295
 20
135643.6052537746
 30
0.0
 11
236697.3272913754
 21
135667.8543619119
 31
0.0
 12
236710.2262670184
 22
135694.010897007
 32
0.0
 13
236665.2847930982
 23
135655.9147750202
 33
0.0
 70
    12
  0
LINE
  5
F7BD
330
2
100
AcDbEntity
  8
0
370
     5
380
     1
100
AcDbLine
 10
236703.8931305562
 20
135841.0875639014
 30
0.0
 11
236703.8931305562
 21
135741.0875639014
 31
0.0
  0
LINE
  5
F7BE
330
2
100
AcDbEntity
  8
0
370
     5
380
     1
100
AcDbLine
 10
236703.8931305562
 20
135741.0875639014
 30
0.0
 11
237073.8931305562
 21
135741.0875639014
 31
0.0
  0
LINE
  5
F7BF
330
2
100
AcDbEntity
  8
0
370
     5
380
     1
100
AcDbLine
 10
236723.8931305562
 20
135741.0875639014
 30
0.0
 11
236723.8931305562
 21
135841.0875639014
 31
0.0
  0
HATCH
  5
F7C0
330
2
100
AcDbEntity
  8
0
370
     5
100
AcDbHatch
 10
0.0
 20
0.0
 30
0.0
210
0.0
220
0.0
230
1.0
  2
SOLID
 70
     1
 71
     1
 91
        1
 92
        7
 72
     1
 73
     1
 93
        2
 10
236763.8931305562
 20
135766.0875639014
 42
1.0
 10
236733.8931305562
 20
135766.0875639014
 42
1.0
 97
        1
330
F7C2
 75
     0
 76
     1
 47
0.5341150679891915
 98
        1
 10
236751.6008331744
 20
135766.3482536928
1001
ACAD
1010
0.0
1020
0.0
1030
0.0
  0
HATCH
  5
F7C1
330
2
100
AcDbEntity
  8
0
370
     5
100
AcDbHatch
 10
0.0
 20
0.0
 30
0.0
210
0.0
220
0.0
230
1.0
  2
SOLID
 70
     1
 71
     1
 91
        2
 92
        7
 72
     1
 73
     1
 93
        2
 10
236768.8931305562
 20
135766.0875639014
 42
1.0
 10
236728.8931305562
 20
135766.0875639014
 42
1.0
 97
        1
330
F7DA
 92
       22
 72
     1
 73
     1
 93
        2
 10
236763.8931305562
 20
135766.0875639014
 42
1.0
 10
236733.8931305562
 20
135766.0875639014
 42
1.0
 97
        1
330
F7C2
 75
     0
 76
     1
 47
0.5341150679891915
 98
        2
 10
236766.0304984128
 20
135769.552922601
 10
236766.0304984128
 20
135769.552922601
1001
ACAD
1010
0.0
1020
0.0
1030
0.0
  0
CIRCLE
  5
F7C2
102
{ACAD_REACTORS
330
F7C0
330
F7C1
102
}
330
2
100
AcDbEntity
  8
0
  6
ByBlock
370
     5
380
     1
100
AcDbCircle
 10
236748.8931305562
 20
135766.0875639014
 30
0.0
 40
15.0
  0
HATCH
  5
F7C3
330
2
100
AcDbEntity
  8
0
370
     5
100
AcDbHatch
 10
0.0
 20
0.0
 30
0.0
210
0.0
220
0.0
230
1.0
  2
SOLID
 70
     1
 71
     1
 91
        1
 92
        7
 72
     1
 73
     1
 93
        2
 10
237043.8931305562
 20
135766.0875639014
 42
1.0
 10
237013.8931305562
 20
135766.0875639014
 42
1.0
 97
        1
330
F7C5
 75
     0
 76
     1
 47
0.3749855517087195
 98
        1
 10
237040.3727101227
 20
135774.0652051818
1001
ACAD
1010
0.0
1020
0.0
1030
0.0
  0
HATCH
  5
F7C4
330
2
100
AcDbEntity
  8
0
370
     5
100
AcDbHatch
 10
0.0
 20
0.0
 30
0.0
210
0.0
220
0.0
230
1.0
  2
SOLID
 70
     1
 71
     0
 91
        2
 92
        7
 72
     1
 73
     1
 93
        2
 10
237048.8931305562
 20
135766.0875639014
 42
1.0
 10
237008.8931305562
 20
135766.0875639014
 42
1.0
 97
        0
 92
       22
 72
     1
 73
     1
 93
        2
 10
237043.8931305562
 20
135766.0875639014
 42
1.0
 10
237013.8931305562
 20
135766.0875639014
 42
1.0
 97
        0
 75
     0
 76
     1
 47
0.3749855517087195
 98
        2
 10
237045.6255362524
 20
135775.56515941
 10
237045.6255362524
 20
135775.56515941
1001
ACAD
1010
0.0
1020
0.0
1030
0.0
  0
CIRCLE
  5
F7C5
102
{ACAD_REACTORS
330
F7C3
102
}
330
2
100
AcDbEntity
  8
0
  6
ByBlock
370
     5
380
     1
100
AcDbCircle
 10
-237028.8931305562
 20
135766.0875639014
 30
0.0
 40
15.0
210
0.0
220
0.0
230
-1.0
  0
CIRCLE
  5
F7C6
330
2
100
AcDbEntity
  8
0
  6
ByBlock
370
     5
380
     1
100
AcDbCircle
 10
-237028.8931305562
 20
135766.0875639014
 30
0.0
 40
20.0
210
0.0
220
0.0
230
-1.0
  0
LINE
  5
F7C7
330
2
100
AcDbEntity
  8
0
  6
ByBlock
370
     5
380
     1
100
AcDbLine
 10
236212.8931105562
 20
136576.0875639014
 30
0.0
 11
236212.8931105562
 21
136606.0875639014
 31
0.0
  0
LINE
  5
F7C8
330
2
100
AcDbEntity
  8
0
  6
ByBlock
370
     5
380
     1
100
AcDbLine
 10
236212.8931105562
 20
136606.0875639014
 30
0.0
 11
236114.8931105562
 21
136606.0875639014
 31
0.0
  0
LINE
  5
F7C9
330
2
100
AcDbEntity
  8
0
  6
ByBlock
370
     5
380
     1
100
AcDbLine
 10
236114.8931105562
 20
136606.0875639014
 30
0.0
 11
236114.8931105562
 21
136576.0875639014
 31
0.0
  0
LINE
  5
F7CA
330
2
100
AcDbEntity
  8
0
  6
ByBlock
370
     5
380
     1
100
AcDbLine
 10
236028.8931305562
 20
135841.0875639014
 30
0.0
 11
236298.8931305562
 21
135841.0875639014
 31
0.0
  0
LINE
  5
F7CB
330
2
100
AcDbEntity
  8
0
  6
ByBlock
370
     5
380
     1
100
AcDbLine
 10
236298.8931305562
 20
135841.0875639014
 30
0.0
 11
236298.8931305562
 21
135906.0875639014
 31
0.0
  0
LINE
  5
F7CC
330
2
100
AcDbEntity
  8
0
  6
ByBlock
370
     5
380
     1
100
AcDbLine
 10
236028.8931305562
 20
135906.0875639014
 30
0.0
 11
236028.8931305562
 21
135841.0875639014
 31
0.0
  0
LINE
  5
F7CD
330
2
100
AcDbEntity
  8
0
370
     5
380
     1
100
AcDbLine
 10
237808.8931327959
 20
136435.0875639014
 30
0.0
 11
237808.8931327959
 21
136595.0875639014
 31
0.0
  0
LINE
  5
F7CE
330
2
100
AcDbEntity
  8
0
370
     5
380
     1
100
AcDbLine
 10
237838.8931321672
 20
136615.0875639014
 30
0.0
 11
237748.4191436326
 21
136615.0899808152
 31
0.0
  0
LINE
  5
F7CF
330
2
100
AcDbEntity
  8
0
370
     5
380
     1
100
AcDbLine
 10
237748.4191313086
 20
136615.0875639014
 30
0.0
 11
237748.3171646014
 21
136595.0905008149
 31
0.0
  0
LINE
  5
F7D0
330
2
100
AcDbEntity
  8
0
370
     5
380
     1
100
AcDbLine
 10
237748.8931334246
 20
136595.0875639014
 30
0.0
 11
237838.8931321672
 21
136595.0875639014
 31
0.0
  0
LINE
  5
F7D1
330
2
100
AcDbEntity
  8
0
370
     5
380
     1
100
AcDbLine
 10
237838.8931321672
 20
136415.0875639014
 30
0.0
 11
237747.3993144808
 21
136415.0875639014
 31
0.0
  0
LINE
  5
F7D2
330
2
100
AcDbEntity
  8
0
370
     5
380
     1
100
AcDbLine
 10
237747.5012961636
 20
136435.0875639014
 30
0.0
 11
237838.8931321672
 21
136435.0875639014
 31
0.0
  0
LINE
  5
F7D3
330
2
100
AcDbEntity
  8
0
370
     5
380
     1
100
AcDbLine
 10
237838.8931321672
 20
136415.0875639014
 30
0.0
 11
237838.8931321672
 21
136615.0875639014
 31
0.0
  0
LINE
  5
F7D4
330
2
100
AcDbEntity
  8
0
370
     5
380
     1
100
AcDbLine
 10
237138.8931305562
 20
136891.0264119479
 30
0.0
 11
237118.8931305562
 21
136891.0264119479
 31
0.0
  0
LINE
  5
F7D5
330
2
100
AcDbEntity
  8
0
370
     5
380
     1
100
AcDbLine
 10
237120.8965481866
 20
136891.0264119479
 30
0.0
 11
237120.8965481866
 21
136981.0875634299
 31
0.0
  0
LINE
  5
F7D6
330
2
100
AcDbEntity
  8
0
370
     5
380
     1
100
AcDbLine
 10
236938.8931305562
 20
136981.0875634299
 30
0.0
 11
236938.8931305562
 21
136891.0264119479
 31
0.0
  0
LINE
  5
F7D7
330
2
100
AcDbEntity
  8
0
370
     5
380
     1
100
AcDbLine
 10
236938.8931305562
 20
136891.0264119479
 30
0.0
 11
236958.8931305562
 21
136891.0264119479
 31
0.0
  0
LINE
  5
F7D8
330
2
100
AcDbEntity
  8
0
370
     5
380
     1
100
AcDbLine
 10
236958.8931305562
 20
136891.0264119479
 30
0.0
 11
236958.8931305562
 21
136981.0875634299
 31
0.0
  0
LINE
  5
F7D9
330
2
100
AcDbEntity
  8
0
370
     5
380
     1
100
AcDbLine
 10
236938.8931305562
 20
136981.0875634299
 30
0.0
 11
237138.8931305562
 21
136981.0875634299
 31
0.0
  0
CIRCLE
  5
F7DA
102
{ACAD_REACTORS
330
F7C1
102
}
330
2
100
AcDbEntity
  8
0
  6
ByBlock
370
     5
380
     1
100
AcDbCircle
 10
236748.8931305562
 20
135766.0875639014
 30
0.0
 40
20.0
  0
CIRCLE
  5
F7DB
330
2
100
AcDbEntity
  8
0
  6
ByBlock
370
     5
380
     1
100
AcDbCircle
 10
237028.8931305562
 20
135766.0875639014
 30
0.0
 40
20.0
  0
LINE
  5
F7DC
330
2
100
AcDbEntity
  8
0
370
     5
380
     1
100
AcDbLine
 10
236686.1962773572
 20
135651.0875639014
 30
0.0
 11
237091.5899837552
 21
135651.0875639014
 31
0.0
  0
LINE
  5
F7DD
330
2
100
AcDbEntity
  8
0
370
     5
380
     1
100
AcDbLine
 10
236703.9325285344
 20
135681.0875639014
 30
0.0
 11
237073.853732578
 21
135681.0875639014
 31
0.0
  0
LINE
  5
F7DE
330
2
100
AcDbEntity
  8
0
370
     5
380
     1
100
AcDbLine
 10
236716.2022797842
 20
135711.0875639014
 30
0.0
 11
237061.5839813282
 21
135711.0875639014
 31
0.0
  0
LINE
  5
F7DF
330
2
100
AcDbEntity
  8
0
370
     5
380
     1
100
AcDbLine
 10
236723.8931305562
 20
135741.0875639015
 30
0.0
 11
236716.2022797842
 21
135711.0875639014
 31
0.0
  0
HATCH
  5
F7E0
330
2
100
AcDbEntity
  8
0
370
     5
100
AcDbHatch
 10
0.0
 20
0.0
 30
0.0
210
0.0
220
0.0
230
1.0
  2
SOLID
 70
     1
 71
     0
 91
        1
 92
        7
 72
     0
 73
     1
 93
        6
 10
237438.8931305562
 20
135841.0875639014
 10
237438.8931305562
 20
135901.0875639014
 10
237118.8931305562
 20
135901.0875639014
 10
236943.8931305561
 20
135901.0875639014
 10
236943.8931305562
 20
135841.0875639014
 10
237118.8931305562
 20
135841.0875639014
 97
        0
 75
     0
 76
     1
 47
3.211996032082508
 98
        1
 10
237194.2350757438
 20
135859.2403502309
1001
ACAD
1010
0.0
1020
0.0
1030
0.0
  0
LINE
  5
F7E1
330
2
100
AcDbEntity
  8
0
  6
ByBlock
370
     5
380
     1
100
AcDbLine
 10
236943.8931305562
 20
135901.0875639014
 30
0.0
 11
236943.8931305562
 21
135841.0875639014
 31
0.0
  0
LINE
  5
F7E2
330
2
100
AcDbEntity
  8
0
  6
ByBlock
370
     5
380
     1
100
AcDbLine
 10
236943.8931305562
 20
135841.0875639014
 30
0.0
 11
237438.8931305562
 21
135841.0875639014
 31
0.0
  0
LINE
  5
F7E3
330
2
100
AcDbEntity
  8
0
  6
ByBlock
370
     5
380
     1
100
AcDbLine
 10
236943.8931305562
 20
135901.0875639014
 30
0.0
 11
237438.8931305562
 21
135901.0875639014
 31
0.0
  0
HATCH
  5
F7E4
330
2
100
AcDbEntity
  8
0
370
     5
100
AcDbHatch
 10
0.0
 20
0.0
 30
0.0
210
0.0
220
0.0
230
1.0
  2
SOLID
 70
     1
 71
     0
 91
        1
 92
        7
 72
     0
 73
     1
 93
       10
 10
236478.8931305562
 20
135841.0875639014
 10
236833.8931305562
 20
135841.0875639014
 10
236833.8931305562
 20
135901.0875639014
 10
236465.6926046463
 20
135901.0875639014
 10
236398.8931305562
 20
135901.0875639014
 10
236398.8931305561
 20
135966.0875639014
 10
236283.8931305562
 20
135966.0875639014
 10
236283.8931305562
 20
135906.0875639014
 10
236338.8931305562
 20
135906.0875639014
 10
236338.8931305562
 20
135841.0875639014
 97
        0
 75
     0
 76
     1
 47
1.255917044955459
 98
        1
 10
236408.0557031868
 20
135870.4793493285
1001
ACAD
1010
0.0
1020
0.0
1030
0.0
  0
LINE
  5
F7E5
330
2
100
AcDbEntity
  8
0
  6
ByBlock
370
     5
380
     1
100
AcDbLine
 10
236833.8931305562
 20
135841.0875639014
 30
0.0
 11
236833.8931305562
 21
135901.0875639014
 31
0.0
  0
LINE
  5
F7E6
330
2
100
AcDbEntity
  8
0
  6
ByBlock
370
     5
380
     1
100
AcDbLine
 10
236338.8931305562
 20
135841.0875639014
 30
0.0
 11
236833.8931305562
 21
135841.0875639014
 31
0.0
  0
LINE
  5
F7E7
330
2
100
AcDbEntity
  8
0
  6
ByBlock
370
     5
380
     1
100
AcDbLine
 10
236398.8931305562
 20
135901.0875639014
 30
0.0
 11
236833.8931305562
 21
135901.0875639014
 31
0.0
  0
LINE
  5
F7E8
330
2
100
AcDbEntity
  8
0
  6
ByBlock
370
     5
380
     1
100
AcDbLine
 10
236338.8931305562
 20
135906.0875639014
 30
0.0
 11
236338.8931305562
 21
135841.0875639014
 31
0.0
  0
LINE
  5
F7E9
330
2
100
AcDbEntity
  8
0
  6
ByBlock
370
     5
380
     1
100
AcDbLine
 10
236398.8931305562
 20
135966.0875639014
 30
0.0
 11
236398.8931305562
 21
135901.0875639014
 31
0.0
  0
LINE
  5
F7EA
330
2
100
AcDbEntity
  8
0
  6
ByBlock
370
     5
380
     1
100
AcDbLine
 10
236398.8931305562
 20
136581.0875639014
 30
0.0
 11
237378.8931305562
 21
136581.0875639014
 31
0.0
  0
LINE
  5
F7EB
330
2
100
AcDbEntity
  8
0
  6
ByBlock
370
     5
100
AcDbLine
 10
236338.8931305562
 20
136641.0875639014
 30
0.0
 11
237438.8931305562
 21
136641.0875639014
 31
0.0
  0
HATCH
  5
F7EC
330
2
100
AcDbEntity
  8
0
370
     5
100
AcDbHatch
 10
0.0
 20
0.0
 30
0.0
210
0.0
220
0.0
230
1.0
  2
SOLID
 70
     1
 71
     0
 91
        1
 92
        7
 72
     0
 73
     1
 93
       10
 10
236048.8931305562
 20
136316.0875639014
 10
236048.8931305562
 20
136516.0875639014
 10
236113.8931305562
 20
136516.0875639014
 10
236113.8931305562
 20
136576.0875639014
 10
235988.8931305562
 20
136576.0875639014
 10
235988.8931305562
 20
136316.0875639014
 10
235988.8931305562
 20
135906.0875639014
 10
236043.8931305562
 20
135906.0875639014
 10
236048.8931305563
 20
135906.0875639014
 10
236048.8931305562
 20
135966.0875639014
 97
        0
 75
     0
 76
     1
 47
3.629289427304263
 98
        1
 10
236041.6751759948
 20
136239.677465414
1001
ACAD
1010
0.0
1020
0.0
1030
0.0
  0
LINE
  5
F7ED
330
2
100
AcDbEntity
  8
0
  6
ByBlock
370
     5
380
     1
100
AcDbLine
 10
235988.8931305562
 20
135906.0875639014
 30
0.0
 11
235988.8931305562
 21
136576.0875639014
 31
0.0
  0
LINE
  5
F7EE
330
2
100
AcDbEntity
  8
0
  6
ByBlock
370
     5
380
     1
100
AcDbLine
 10
236283.8931305562
 20
135966.0875639014
 30
0.0
 11
236283.8931305562
 21
135906.0875639014
 31
0.0
  0
LINE
  5
F7EF
330
2
100
AcDbEntity
  8
0
  6
ByBlock
370
     5
380
     1
100
AcDbLine
 10
236283.8931305562
 20
135966.0875639014
 30
0.0
 11
236398.8931305562
 21
135966.0875639014
 31
0.0
  0
LINE
  5
F7F0
330
2
100
AcDbEntity
  8
0
  6
ByBlock
370
     5
380
     1
100
AcDbLine
 10
235988.8931305562
 20
135906.0875639014
 30
0.0
 11
236338.8931305562
 21
135906.0875639014
 31
0.0
  0
LINE
  5
F7F1
330
2
100
AcDbEntity
  8
0
  6
ByBlock
370
     5
380
     1
100
AcDbLine
 10
236048.8931305563
 20
135906.0875639014
 30
0.0
 11
236048.8931305562
 21
136516.0875639014
 31
0.0
  0
LINE
  5
F7F2
330
2
100
AcDbEntity
  8
0
  6
ByBlock
370
     5
380
     1
100
AcDbLine
 10
236113.8931305562
 20
136516.0875639014
 30
0.0
 11
236113.8931305562
 21
136576.0875639014
 31
0.0
  0
LINE
  5
F7F3
330
2
100
AcDbEntity
  8
0
  6
ByBlock
370
     5
380
     1
100
AcDbLine
 10
236113.8931305562
 20
136576.0875639014
 30
0.0
 11
235988.8931305562
 21
136576.0875639014
 31
0.0
  0
LINE
  5
F7F4
330
2
100
AcDbEntity
  8
0
  6
ByBlock
370
     5
380
     1
100
AcDbLine
 10
236113.8931305562
 20
136516.0875639014
 30
0.0
 11
236048.8931305562
 21
136516.0875639014
 31
0.0
  0
LINE
  5
F7F5
330
2
100
AcDbEntity
  8
0
  6
ByBlock
370
     5
380
     1
100
AcDbLine
 10
236338.8931305562
 20
136576.0875639014
 30
0.0
 11
236213.8931305562
 21
136576.0875639014
 31
0.0
  0
LINE
  5
F7F6
330
2
100
AcDbEntity
  8
0
  6
ByBlock
370
     5
380
     1
100
AcDbLine
 10
236398.8931305562
 20
136516.0875639014
 30
0.0
 11
236213.8931305562
 21
136516.0875639014
 31
0.0
  0
LINE
  5
F7F7
330
2
100
AcDbEntity
  8
0
  6
ByBlock
370
     5
380
     1
100
AcDbLine
 10
236213.8931305562
 20
136576.0875639014
 30
0.0
 11
236213.8931305562
 21
136516.0875639014
 31
0.0
  0
LINE
  5
F7F8
330
2
100
AcDbEntity
  8
0
  6
ByBlock
370
     5
380
     1
100
AcDbLine
 10
236338.8931305562
 20
136641.0875639014
 30
0.0
 11
236338.8931305562
 21
136576.0875639014
 31
0.0
  0
LINE
  5
F7F9
330
2
100
AcDbEntity
  8
0
  6
ByBlock
370
     5
380
     1
100
AcDbLine
 10
236398.8931305562
 20
136581.0875639014
 30
0.0
 11
236398.8931305562
 21
136516.0875639014
 31
0.0
  0
LINE
  5
F7FA
330
2
100
AcDbEntity
  8
0
  6
ByBlock
370
     5
380
     1
100
AcDbLine
 10
237378.8931305562
 20
136317.6093000973
 30
0.0
 11
237378.8931305562
 21
136581.0875639014
 31
0.0
  0
LINE
  5
F7FB
330
2
100
AcDbEntity
  8
0
  6
ByBlock
370
     5
380
     1
100
AcDbLine
 10
237378.8931305562
 20
135841.0875639014
 30
0.0
 11
237378.8931305562
 21
136157.6093000973
 31
0.0
  0
LINE
  5
F7FC
330
2
100
AcDbEntity
  8
0
370
     5
100
AcDbLine
 10
236828.910215447
 20
136663.7542305819
 30
0.0
 11
236828.910215447
 21
136641.0875639014
 31
0.0
  0
LINE
  5
F7FD
330
2
100
AcDbEntity
  8
0
370
     5
100
AcDbLine
 10
236888.8931305562
 20
136659.7553695903
 30
0.0
 11
236888.910215447
 21
136648.0875639014
 31
0.0
  0
LINE
  5
F7FE
330
2
100
AcDbEntity
  8
0
370
     5
100
AcDbLine
 10
236888.910215447
 20
136659.7542305976
 30
0.0
 11
236828.910215447
 21
136663.7542305819
 31
0.0
  0
LINE
  5
F7FF
330
2
100
AcDbEntity
  8
0
370
     5
100
AcDbLine
 10
237142.2485317558
 20
135710.2357718606
 30
0.0
 11
237082.9704865901
 21
135710.2625871375
 31
0.0
  0
LINE
  5
F800
330
2
100
AcDbEntity
  8
0
370
     5
100
AcDbLine
 10
237172.5152038719
 20
135650.5133697735
 30
0.0
 11
237117.5363436946
 21
135650.1735996378
 31
0.0
  0
LINE
  5
F801
330
2
100
AcDbEntity
  8
0
370
     5
100
AcDbLine
 10
236710.2262670184
 20
135694.010897007
 30
0.0
 11
236716.2022797842
 21
135711.0875639014
 31
0.0
  0
LINE
  5
F802
330
2
100
AcDbEntity
  8
0
  6
ByBlock
370
     5
100
AcDbLine
 10
236028.8931305562
 20
135841.0875639014
 30
0.0
 11
236163.8931305562
 21
135906.0875639014
 31
0.0
  0
LINE
  5
F803
330
2
100
AcDbEntity
  8
0
  6
ByBlock
370
     5
100
AcDbLine
 10
236163.8931305562
 20
135906.0875639014
 30
0.0
 11
236298.8931305562
 21
135841.0875639014
 31
0.0
  0
LINE
  5
F804
330
2
100
AcDbEntity
  8
0
370
     5
100
AcDbLine
 10
236113.8931305562
 20
136576.0875639014
 30
0.0
 11
236213.8931305562
 21
136576.0875639014
 31
0.0
  0
LINE
  5
F805
330
2
100
AcDbEntity
  8
0
370
     5
100
AcDbLine
 10
236113.8931305562
 20
136516.0875639014
 30
0.0
 11
236213.8931305562
 21
136516.0875639014
 31
0.0
  0
LINE
  5
F806
330
2
100
AcDbEntity
  8
0
370
     5
100
AcDbLine
 10
236283.8931305562
 20
135966.0875639014
 30
0.0
 11
236048.8931305562
 21
135966.0875639013
 31
0.0
  0
LINE
  5
F807
330
2
100
AcDbEntity
  8
0
370
     5
100
AcDbLine
 10
236943.8931305562
 20
135841.0875639014
 30
0.0
 11
236833.8931305562
 21
135841.0875639014
 31
0.0
  0
LINE
  5
F808
330
2
100
AcDbEntity
  8
0
370
     5
100
AcDbLine
 10
236943.8931305562
 20
135901.0875639014
 30
0.0
 11
236833.8931305562
 21
135901.0875639014
 31
0.0
  0
LINE
  5
F809
330
2
100
AcDbEntity
  8
0
  6
ByBlock
370
     5
100
AcDbLine
 10
237378.8931305562
 20
136317.6093000973
 30
0.0
 11
237438.8931305562
 21
136317.6093000973
 31
0.0
  0
LINE
  5
F80A
330
2
100
AcDbEntity
  8
0
  6
ByBlock
370
     5
100
AcDbLine
 10
237378.8931305562
 20
136157.6093000973
 30
0.0
 11
237438.8931305562
 21
136157.6093000973
 31
0.0
  0
LINE
  5
F80B
330
2
100
AcDbEntity
  8
0
370
     5
100
AcDbLine
 10
237378.8931305562
 20
136317.6093000973
 30
0.0
 11
237378.8931305562
 21
136143.6490933153
 31
0.0
  0
LINE
  5
F80C
330
2
100
AcDbEntity
  8
0
370
     5
100
AcDbLine
 10
237438.8931305562
 20
136317.6093000973
 30
0.0
 11
237438.8931305562
 21
136157.6093000973
 31
0.0
  0
LINE
  5
FA75
330
2
100
AcDbEntity
  8
0
 48
4.0
370
     5
100
AcDbLine
 10
235588.8931305562
 20
137051.0875639014
 30
0.0
 11
237848.8931305562
 21
137051.0875639014
 31
0.0
  0
LINE
  5
FA76
330
2
100
AcDbEntity
  8
0
 48
4.0
370
     5
100
AcDbLine
 10
237848.8931305562
 20
137051.0875639014
 30
0.0
 11
237848.8931305562
 21
135431.0875639014
 31
0.0
  0
LINE
  5
FA77
330
2
100
AcDbEntity
  8
0
 48
4.0
370
     5
100
AcDbLine
 10
237848.8931305562
 20
135431.0875639014
 30
0.0
 11
235588.8931305562
 21
135431.0875639014
 31
0.0
  0
LINE
  5
FA78
330
2
100
AcDbEntity
  8
0
 48
4.0
370
     5
100
AcDbLine
 10
235588.8931305562
 20
135431.0875639014
 30
0.0
 11
235588.8931305562
 21
137051.0875639014
 31
0.0
  0
ENDSEC
  0
SECTION
  2
OBJECTS
  0
DICTIONARY
  5
7
330
0
100
AcDbDictionary
281
     1
  3
ACAD_COLOR
350
31
  3
ACAD_GROUP
350
2D
  3
ACAD_LAYOUT
350
B
  3
ACAD_MATERIAL
350
30
  3
ACAD_MLINESTYLE
350
2E
  3
ACAD_PLOTSETTINGS
350
2F
  3
ACAD_PLOTSTYLENAME
350
6
  3
ACAD_TABLESTYLE
350
DF2
  3
ACAD_VISUALSTYLE
350
172D
  3
AcAec
350
8309
  3
AcDbVariableDictionary
350
E04
  3
AEC_2D_SECTION_STYLES
350
6852
  3
AEC_CLASSIFICATION_SYSTEM_DEFS
350
3C3
  3
AEC_CLEANUP_GROUP_DEFS
350
6863
  3
AEC_CURTAIN_WALL_LAYOUT_STYLES
350
6864
  3
AEC_CURTAIN_WALL_UNIT_STYLES
350
6865
  3
AEC_DIM_STYLES
350
6871
  3
AEC_DISP_REP_CONFIGURATIONS
350
69A3
  3
AEC_DISP_REP_SETS
350
6999
  3
AEC_DISP_REPS
350
6873
  3
AEC_DISPLAY_PROPS_DEFAULTS
350
6875
  3
AEC_DISPLAYTHEME_STYLES
350
6870
  3
AEC_DOOR_STYLES
350
685B
  3
AEC_ENDCAP_STYLES
350
685C
  3
AEC_LAYERKEY_STYLES
350
685A
  3
AEC_LIST_DEFINITIONS
350
6855
  3
AEC_MASKBLOCK_DEFS
350
684E
  3
AEC_MASS_ELEM_STYLES
350
6854
  3
AEC_MATERIAL_DEFS
350
6853
  3
AEC_MVBLOCK_DEFS
350
684F
  3
AEC_OPENING_ENDCAP_STYLES
350
686C
  3
AEC_POLYGON_STYLES
350
6851
  3
AEC_PROFILE_DEFS
350
6850
  3
AEC_PROPERTY_FORMAT_DEFS
350
6856
  3
AEC_PROPERTY_SET_DEFS
350
3C4
  3
AEC_RAILING_STYLES
350
6867
  3
AEC_ROOFSLAB_STYLES
350
6868
  3
AEC_ROOFSLABEDGE_STYLES
350
6869
  3
AEC_SCHEDULE_TABLE_STYLES
350
6857
  3
AEC_SLAB_STYLES
350
686A
  3
AEC_SLABEDGE_STYLES
350
686B
  3
AEC_SPACE_MODIFIERS
350
686D
  3
AEC_SPACE_STYLES
350
685D
  3
AEC_STAIR_STYLES
350
685E
  3
AEC_STAIR_WINDER_STYLES
350
685F
  3
AEC_STRUCTURALMEMBER_STYLES
350
6858
  3
AEC_VARS
350
687A
  3
AEC_WALL_STYLES
350
6861
  3
AEC_WALLMOD_STYLES
350
6860
  3
AEC_WINDOW_ASSEMBLY_STYLES
350
6866
  3
AEC_WINDOW_STYLES
350
6862
  3
AEC_ZONE_DEFS
350
686F
  3
AEC_ZONE_STYLES
350
686E
  3
AECS_MEMBER_NODE_SHAPE
350
6859
  3
ASE_INDEX_DICTIONARY
350
E2AF
  3
BNS_VARIABLES
350
41C3
  3
DWGPROPS
350
FA81
  0
DICTIONARY
  5
12
330
11
100
AcDbDictionary
280
     1
281
     1
  3
ACAD_LAYERFILTERS
360
8311
  3
ACAD_LAYERSTATES
360
13
  3
ACLYDICTIONARY
360
8310
  0
DICTIONARY
  5
1FEF
330
2
100
AcDbDictionary
280
     1
281
     1
  3
ACAD_SORTENTS
360
1FF0
  0
DICTIONARY
  5
24
330
23
100
AcDbDictionary
280
     1
281
     1
  3
ACAD_SORTENTS
360
117C
  0
DICTIONARY
  5
31
102
{ACAD_REACTORS
330
7
102
}
330
7
100
AcDbDictionary
281
     1
  0
DICTIONARY
  5
2D
102
{ACAD_REACTORS
330
7
102
}
330
7
100
AcDbDictionary
281
     1
  0
DICTIONARY
  5
B
102
{ACAD_REACTORS
330
7
102
}
330
7
100
AcDbDictionary
281
     1
  3
Layout1
350
10
  3
Model
350
A
  0
DICTIONARY
  5
30
102
{ACAD_REACTORS
330
7
102
}
330
7
100
AcDbDictionary
281
     1
  3
ByBlock
350
172B
  3
ByLayer
350
172A
  3
Global
350
172C
  0
DICTIONARY
  5
2E
102
{ACAD_REACTORS
330
7
102
}
330
7
100
AcDbDictionary
281
     1
  3
Standard
350
33
  0
DICTIONARY
  5
2F
102
{ACAD_REACTORS
330
7
102
}
330
7
100
AcDbDictionary
281
     1
  0
ACDBDICTIONARYWDFLT
  5
6
102
{ACAD_REACTORS
330
7
102
}
330
7
100
AcDbDictionary
281
     1
  3
Normal
350
5
100
AcDbDictionaryWithDefault
340
5
  0
DICTIONARY
  5
DF2
102
{ACAD_REACTORS
330
7
102
}
330
7
100
AcDbDictionary
281
     1
  3
Standard
350
DF3
  0
DICTIONARY
  5
172D
102
{ACAD_REACTORS
330
7
102
}
330
7
100
AcDbDictionary
281
     1
  3
2dWireframe
350
1733
  3
3D Hidden
350
FA66
  3
3dWireframe
350
FA67
  3
Basic
350
1732
  3
Brighten
350
1739
  3
ColorChange
350
173D
  3
Conceptual
350
FA68
  3
Dim
350
1738
  3
Facepattern
350
173C
  3
Flat
350
172E
  3
FlatWithEdges
350
172F
  3
Gouraud
350
1730
  3
GouraudWithEdges
350
1731
  3
Linepattern
350
173B
  3
Realistic
350
FA69
  3
Thicken
350
173A
  0
DICTIONARY
  5
8309
102
{ACAD_REACTORS
330
7
102
}
330
7
100
AcDbDictionary
281
     1
  3
AcAecLayerManager
350
830A
  0
DICTIONARY
  5
E04
102
{ACAD_REACTORS
330
7
102
}
330
7
100
AcDbDictionary
281
     1
  3
CTABLESTYLE
350
E05
  3
DIMASSOC
350
FA80
  3
HIDETEXT
350
FA7F
  3
INDEXCTL
350
FA7E
  3
SORTENTS
350
FA7D
  0
DICTIONARY
  5
6852
102
{ACAD_REACTORS
330
7
102
}
330
7
100
AcDbDictionary
281
     1
  0
DICTIONARY
  5
3C3
102
{ACAD_REACTORS
330
7
102
}
330
7
100
AcDbDictionary
281
     1
  0
DICTIONARY
  5
6863
102
{ACAD_REACTORS
330
7
102
}
330
7
100
AcDbDictionary
281
     1
  0
DICTIONARY
  5
6864
102
{ACAD_REACTORS
330
7
102
}
330
7
100
AcDbDictionary
281
     1
  0
DICTIONARY
  5
6865
102
{ACAD_REACTORS
330
7
102
}
330
7
100
AcDbDictionary
281
     1
  0
DICTIONARY
  5
6871
102
{ACAD_REACTORS
330
7
102
}
330
7
100
AcDbDictionary
281
     1
  0
DICTIONARY
  5
69A3
102
{ACAD_REACTORS
330
7
102
}
330
7
100
AcDbDictionary
281
     1
  3
Medium Detail
350
82FE
  3
Standard
350
69A4
  0
DICTIONARY
  5
6999
102
{ACAD_REACTORS
330
7
102
}
330
7
100
AcDbDictionary
281
     1
  3
Elevation
350
699D
  3
Model
350
699A
  3
Model High Detail
350
69A1
  3
Model Low Detail
350
69A0
  3
Plan
350
699B
  3
Plan Diagnostic
350
69A2
  3
Plan High Detail
350
699F
  3
Plan Low Detail
350
699E
  3
Reflected
350
699C
  0
DICTIONARY
  5
6873
102
{ACAD_REACTORS
330
7
102
}
330
7
100
AcDbDictionary
281
     1
  3
AecDbDispRep2dSection
350
68D5
  3
AecDbDispRepAnchor
350
68D7
  3
AecDbDispRepAnchorBubToGrid
350
697D
  3
AecDbDispRepAnchorBubToGridMdl
350
697F
  3
AecDbDispRepAnchorBubToGridRcp
350
6981
  3
AecDbDispRepAnchorEntToNode
350
68D8
  3
AecDbDispRepAnchorExtendedTagToEnt
350
6903
  3
AecDbDispRepAnchorTagToEnt
350
6901
  3
AecDbDispRepBdgElevLineModel
350
6907
  3
AecDbDispRepBdgElevLinePlan
350
6909
  3
AecDbDispRepBdgElevLinePlan100
350
6874
  3
AecDbDispRepBdgElevLinePlan50
350
6892
  3
AecDbDispRepBdgElevLineRcp
350
690B
  3
AecDbDispRepBdgSectionLineModel
350
690D
  3
AecDbDispRepBdgSectionLinePlan
350
690F
  3
AecDbDispRepBdgSectionLinePlan100
350
6877
  3
AecDbDispRepBdgSectionLinePlan50
350
6894
  3
AecDbDispRepBdgSectionLineRcp
350
6911
  3
AecDbDispRepBdgSectionModel
350
6913
  3
AecDbDispRepBdgSectionSubDiv
350
6914
  3
AecDbDispRepCeilingGrid
350
6916
  3
AecDbDispRepCeilingGridModel
350
6918
  3
AecDbDispRepCeilingGridPlan100
350
6879
  3
AecDbDispRepCeilingGridPlan50
350
6896
  3
AecDbDispRepCeilingGridRcp
350
691A
  3
AecDbDispRepClipVolModel
350
68DA
  3
AecDbDispRepClipVolPlan
350
68DC
  3
AecDbDispRepClipVolResSubDiv
350
68DF
  3
AecDbDispRepClipVolResult
350
68DE
  3
AecDbDispRepColumnGrid
350
6983
  3
AecDbDispRepColumnGridModel
350
6985
  3
AecDbDispRepColumnGridPlan100
350
687D
  3
AecDbDispRepColumnGridPlan50
350
6898
  3
AecDbDispRepColumnGridRcp
350
6987
  3
AecDbDispRepCurtainWallLayoutModel
350
691C
  3
AecDbDispRepCurtainWallLayoutPlan
350
691E
  3
AecDbDispRepCurtainWallLayoutPlan100
350
687F
  3
AecDbDispRepCurtainWallLayoutPlan50
350
689A
  3
AecDbDispRepCurtainWallUnitModel
350
6920
  3
AecDbDispRepCurtainWallUnitPlan
350
6922
  3
AecDbDispRepCurtainWallUnitPlan100
350
6881
  3
AecDbDispRepCurtainWallUnitPlan50
350
689C
  3
AecDbDispRepDimGroupPlan
350
68B1
  3
AecDbDispRepDimGroupPlan100
350
68AD
  3
AecDbDispRepDimGroupPlan50
350
68AF
  3
AecDbDispRepDisplayTheme
350
68E1
  3
AecDbDispRepDoorElev
350
6926
  3
AecDbDispRepDoorModel
350
6924
  3
AecDbDispRepDoorNominal
350
692A
  3
AecDbDispRepDoorPlan
350
6928
  3
AecDbDispRepDoorPlan50
350
68B3
  3
AecDbDispRepDoorPlanHekto
350
68B5
  3
AecDbDispRepDoorRcp
350
692C
  3
AecDbDispRepDoorThresholdPlan
350
692E
  3
AecDbDispRepDoorThresholdSymbolPlan
350
68B7
  3
AecDbDispRepEditInPlaceProfile
350
68E3
  3
AecDbDispRepEntRef
350
68E5
  3
AecDbDispRepLayoutCurve
350
68E7
  3
AecDbDispRepLayoutGrid2d
350
68E9
  3
AecDbDispRepLayoutGrid3d
350
68EB
  3
AecDbDispRepMaskBlockRef
350
68ED
  3
AecDbDispRepMaskBlockRefRcp
350
6930
  3
AecDbDispRepMassElemModel
350
68F9
  3
AecDbDispRepMassElemPlan100
350
68B9
  3
AecDbDispRepMassElemPlan50
350
68BB
  3
AecDbDispRepMassElemRcp
350
6932
  3
AecDbDispRepMassElemSchem
350
68FB
  3
AecDbDispRepMassGroupModel
350
68FD
  3
AecDbDispRepMassGroupPlan
350
68FF
  3
AecDbDispRepMassGroupPlan100
350
68BD
  3
AecDbDispRepMassGroupPlan50
350
68BF
  3
AecDbDispRepMassGroupRcp
350
6934
  3
AecDbDispRepMaterial
350
68EF
  3
AecDbDispRepMvBlockRef
350
68F1
  3
AecDbDispRepMvBlockRef$Plan
350
8301
  3
AecDbDispRepMvBlockRefModel
350
68F2
  3
AecDbDispRepMvBlockRefPlan100
350
6883
  3
AecDbDispRepMvBlockRefPlan50
350
689E
  3
AecDbDispRepMvBlockRefRcp
350
6936
  3
AecDbDispRepOpening
350
6937
  3
AecDbDispRepOpeningModel
350
6939
  3
AecDbDispRepOpeningPlan100
350
68C1
  3
AecDbDispRepOpeningPlan50
350
68C3
  3
AecDbDispRepOpeningPlanReflected
350
68C5
  3
AecDbDispRepOpeningSillPlan
350
68C7
  3
AecDbDispRepPolygonModel
350
68F3
  3
AecDbDispRepPolygonTrueColour
350
68F5
  3
AecDbDispRepRailingModel
350
693B
  3
AecDbDispRepRailingPlan
350
693D
  3
AecDbDispRepRailingPlan100
350
68C9
  3
AecDbDispRepRailingPlan50
350
68CB
  3
AecDbDispRepRoofModel
350
693F
  3
AecDbDispRepRoofPlan
350
6941
  3
AecDbDispRepRoofPlan100
350
6884
  3
AecDbDispRepRoofPlan50
350
689F
  3
AecDbDispRepRoofRcp
350
6943
  3
AecDbDispRepRoofSlabModel
350
6947
  3
AecDbDispRepRoofSlabPlan
350
694B
  3
AecDbDispRepRoofSlabPlan100
350
6886
  3
AecDbDispRepRoofSlabPlan50
350
68A1
  3
AecDbDispRepScheduleTable
350
6905
  3
AecDbDispRepSlabModel
350
6945
  3
AecDbDispRepSlabPlan
350
6949
  3
AecDbDispRepSlabPlan100
350
6888
  3
AecDbDispRepSlabPlan50
350
68A3
  3
AecDbDispRepSlice
350
68F7
  3
AecDbDispRepSpaceDecomposed
350
694D
  3
AecDbDispRepSpaceModel
350
694F
  3
AecDbDispRepSpacePlan
350
6951
  3
AecDbDispRepSpacePlan100
350
688A
  3
AecDbDispRepSpacePlan50
350
68A5
  3
AecDbDispRepSpaceRcp
350
6953
  3
AecDbDispRepSpaceVolume
350
6955
  3
AecDbDispRepStairModel
350
6957
  3
AecDbDispRepStairPlan
350
6959
  3
AecDbDispRepStairPlan100
350
68CD
  3
AecDbDispRepStairPlan50
350
68CF
  3
AecDbDispRepStairPlanOverlapping
350
695B
  3
AecDbDispRepStairRcp
350
695D
  3
AecDbDispRepWallGraph
350
695F
  3
AecDbDispRepWallModel
350
6961
  3
AecDbDispRepWallPlan
350
6963
  3
AecDbDispRepWallPlan100
350
688C
  3
AecDbDispRepWallPlan50
350
68A7
  3
AecDbDispRepWallRcp
350
6965
  3
AecDbDispRepWallSchem
350
6967
  3
AecDbDispRepWindowAssemblyModel
350
6969
  3
AecDbDispRepWindowAssemblyPlan
350
696B
  3
AecDbDispRepWindowAssemblyPlan100
350
688E
  3
AecDbDispRepWindowAssemblyPlan50
350
68A9
  3
AecDbDispRepWindowAssemblySillPlan
350
696D
  3
AecDbDispRepWindowElev
350
6971
  3
AecDbDispRepWindowModel
350
696F
  3
AecDbDispRepWindowNominal
350
6975
  3
AecDbDispRepWindowPlan
350
6973
  3
AecDbDispRepWindowPlan100
350
68D1
  3
AecDbDispRepWindowPlan50
350
68D3
  3
AecDbDispRepWindowRcp
350
6977
  3
AecDbDispRepWindowSillPlan
350
6979
  3
AecDbDispRepZone
350
697B
  3
AecDbDispRepZonePlan100
350
6890
  3
AecDbDispRepZonePlan50
350
68AB
  3
AecsDbDispRepMemberElevationDesign
350
6989
  3
AecsDbDispRepMemberElevationDetail
350
698B
  3
AecsDbDispRepMemberLogical
350
698D
  3
AecsDbDispRepMemberModelDesign
350
698F
  3
AecsDbDispRepMemberModelDetail
350
6991
  3
AecsDbDispRepMemberPlanDesign
350
6993
  3
AecsDbDispRepMemberPlanDetail
350
6995
  3
AecsDbDispRepMemberPlanSketch
350
6997
  0
DICTIONARY
  5
6875
102
{ACAD_REACTORS
330
7
102
}
330
7
100
AcDbDictionary
281
     1
  3
*A1
350
6876
  3
*A10
350
695C
  3
*A100
350
68EC
  3
*A101
350
68EE
  3
*A102
350
68F0
  3
*A103
350
6908
  3
*A104
350
68CE
  3
*A105
350
6882
  3
*A106
350
68F4
  3
*A107
350
690A
  3
*A108
350
68B0
  3
*A109
350
6970
  3
*A11
350
68FA
  3
*A110
350
690C
  3
*A111
350
697E
  3
*A112
350
690E
  3
*A113
350
697A
  3
*A114
350
6910
  3
*A115
350
6912
  3
*A116
350
68D0
  3
*A117
350
6954
  3
*A118
350
6915
  3
*A119
350
6917
  3
*A12
350
68AC
  3
*A120
350
6996
  3
*A121
350
6919
  3
*A122
350
691B
  3
*A123
350
6958
  3
*A124
350
692D
  3
*A125
350
68B2
  3
*A126
350
6887
  3
*A127
350
688D
  3
*A128
350
68D2
  3
*A129
350
692F
  3
*A13
350
694A
  3
*A130
350
6889
  3
*A131
350
6998
  3
*A132
350
6931
  3
*A133
350
6933
  3
*A134
350
697C
  3
*A135
350
68F8
  3
*A136
350
6935
  3
*A137
350
6938
  3
*A138
350
693A
  3
*A139
350
68FE
  3
*A14
350
695E
  3
*A140
350
68D4
  3
*A141
350
68B4
  3
*A15
350
68BA
  3
*A16
350
6960
  3
*A17
350
68B6
  3
*A18
350
6962
  3
*A19
350
6964
  3
*A2
350
6895
  3
*A20
350
691F
  3
*A21
350
688B
  3
*A22
350
6966
  3
*A23
350
6968
  3
*A24
350
68F6
  3
*A25
350
68D6
  3
*A26
350
696A
  3
*A27
350
696C
  3
*A28
350
688F
  3
*A29
350
6980
  3
*A3
350
693C
  3
*A30
350
68FC
  3
*A31
350
696E
  3
*A32
350
6891
  3
*A33
350
6921
  3
*A34
350
6982
  3
*A35
350
6880
  3
*A36
350
6984
  3
*A37
350
68D9
  3
*A38
350
6986
  3
*A39
350
6988
  3
*A4
350
693E
  3
*A40
350
68B8
  3
*A41
350
6948
  3
*A42
350
698A
  3
*A43
350
698C
  3
*A44
350
698E
  3
*A45
350
694E
  3
*A46
350
6897
  3
*A47
350
6923
  3
*A48
350
6900
  3
*A49
350
6906
  3
*A5
350
6940
  3
*A50
350
6899
  3
*A51
350
6902
  3
*A52
350
689B
  3
*A53
350
689D
  3
*A54
350
68DB
  3
*A55
350
6972
  3
*A56
350
6878
  3
*A57
350
68A0
  3
*A58
350
68A2
  3
*A59
350
6946
  3
*A6
350
695A
  3
*A60
350
6925
  3
*A61
350
68A4
  3
*A62
350
68A6
  3
*A63
350
68A8
  3
*A64
350
68BC
  3
*A65
350
6990
  3
*A66
350
694C
  3
*A67
350
68AA
  3
*A68
350
68BE
  3
*A69
350
6974
  3
*A7
350
691D
  3
*A70
350
68C0
  3
*A71
350
692B
  3
*A72
350
68C2
  3
*A73
350
6927
  3
*A74
350
68C4
  3
*A75
350
68C6
  3
*A76
350
6992
  3
*A77
350
6904
  3
*A78
350
687E
  3
*A79
350
68C8
  3
*A8
350
6942
  3
*A80
350
68CA
  3
*A81
350
68CC
  3
*A82
350
6885
  3
*A83
350
68DD
  3
*A84
350
6976
  3
*A85
350
6950
  3
*A86
350
6956
  3
*A87
350
6994
  3
*A88
350
68E0
  3
*A89
350
6952
  3
*A9
350
6944
  3
*A90
350
68E2
  3
*A91
350
68E4
  3
*A92
350
6929
  3
*A93
350
68AE
  3
*A94
350
68E6
  3
*A95
350
68E8
  3
*A96
350
68EA
  3
*A97
350
687C
  3
*A98
350
6893
  3
*A99
350
6978
  0
DICTIONARY
  5
6870
102
{ACAD_REACTORS
330
7
102
}
330
7
100
AcDbDictionary
281
     1
  0
DICTIONARY
  5
685B
102
{ACAD_REACTORS
330
7
102
}
330
7
100
AcDbDictionary
281
     1
  0
DICTIONARY
  5
685C
102
{ACAD_REACTORS
330
7
102
}
330
7
100
AcDbDictionary
281
     1
  0
DICTIONARY
  5
685A
102
{ACAD_REACTORS
330
7
102
}
330
7
100
AcDbDictionary
281
     1
  3
AIA (256 Color)
350
8304
  0
DICTIONARY
  5
6855
102
{ACAD_REACTORS
330
7
102
}
330
7
100
AcDbDictionary
281
     1
  0
DICTIONARY
  5
684E
102
{ACAD_REACTORS
330
7
102
}
330
7
100
AcDbDictionary
281
     1
  0
DICTIONARY
  5
6854
102
{ACAD_REACTORS
330
7
102
}
330
7
100
AcDbDictionary
281
     1
  0
DICTIONARY
  5
6853
102
{ACAD_REACTORS
330
7
102
}
330
7
100
AcDbDictionary
281
     1
  0
DICTIONARY
  5
684F
102
{ACAD_REACTORS
330
7
102
}
330
7
100
AcDbDictionary
281
     1
  0
DICTIONARY
  5
686C
102
{ACAD_REACTORS
330
7
102
}
330
7
100
AcDbDictionary
281
     1
  0
DICTIONARY
  5
6851
102
{ACAD_REACTORS
330
7
102
}
330
7
100
AcDbDictionary
281
     1
  0
DICTIONARY
  5
6850
102
{ACAD_REACTORS
330
7
102
}
330
7
100
AcDbDictionary
281
     1
  0
DICTIONARY
  5
6856
102
{ACAD_REACTORS
330
7
102
}
330
7
100
AcDbDictionary
281
     1
  0
DICTIONARY
  5
3C4
102
{ACAD_REACTORS
330
7
102
}
330
7
100
AcDbDictionary
281
     1
  0
DICTIONARY
  5
6867
102
{ACAD_REACTORS
330
7
102
}
330
7
100
AcDbDictionary
281
     1
  0
DICTIONARY
  5
6868
102
{ACAD_REACTORS
330
7
102
}
330
7
100
AcDbDictionary
281
     1
  0
DICTIONARY
  5
6869
102
{ACAD_REACTORS
330
7
102
}
330
7
100
AcDbDictionary
281
     1
  0
DICTIONARY
  5
6857
102
{ACAD_REACTORS
330
7
102
}
330
7
100
AcDbDictionary
281
     1
  0
DICTIONARY
  5
686A
102
{ACAD_REACTORS
330
7
102
}
330
7
100
AcDbDictionary
281
     1
  0
DICTIONARY
  5
686B
102
{ACAD_REACTORS
330
7
102
}
330
7
100
AcDbDictionary
281
     1
  0
DICTIONARY
  5
686D
102
{ACAD_REACTORS
330
7
102
}
330
7
100
AcDbDictionary
281
     1
  0
DICTIONARY
  5
685D
102
{ACAD_REACTORS
330
7
102
}
330
7
100
AcDbDictionary
281
     1
  0
DICTIONARY
  5
685E
102
{ACAD_REACTORS
330
7
102
}
330
7
100
AcDbDictionary
281
     1
  0
DICTIONARY
  5
685F
102
{ACAD_REACTORS
330
7
102
}
330
7
100
AcDbDictionary
281
     1
  0
DICTIONARY
  5
6858
102
{ACAD_REACTORS
330
7
102
}
330
7
100
AcDbDictionary
281
     1
  0
DICTIONARY
  5
687A
102
{ACAD_REACTORS
330
7
102
}
330
7
100
AcDbDictionary
281
     1
  3
AEC_VARS_ARCHBASE
350
8307
  3
AEC_VARS_DWG_SETUP
350
687B
  3
AECMX_VARS_MUNICH
350
8308
  0
DICTIONARY
  5
6861
102
{ACAD_REACTORS
330
7
102
}
330
7
100
AcDbDictionary
281
     1
  0
DICTIONARY
  5
6860
102
{ACAD_REACTORS
330
7
102
}
330
7
100
AcDbDictionary
281
     1
  0
DICTIONARY
  5
6866
102
{ACAD_REACTORS
330
7
102
}
330
7
100
AcDbDictionary
281
     1
  0
DICTIONARY
  5
6862
102
{ACAD_REACTORS
330
7
102
}
330
7
100
AcDbDictionary
281
     1
  0
DICTIONARY
  5
686F
102
{ACAD_REACTORS
330
7
102
}
330
7
100
AcDbDictionary
281
     1
  0
DICTIONARY
  5
686E
102
{ACAD_REACTORS
330
7
102
}
330
7
100
AcDbDictionary
281
     1
  0
DICTIONARY
  5
6859
102
{ACAD_REACTORS
330
7
102
}
330
7
100
AcDbDictionary
281
     1
  0
DICTIONARY
  5
E2AF
102
{ACAD_REACTORS
330
7
102
}
330
7
100
AcDbDictionary
281
     1
  3
ASEBlockHierarchyIndexRecord
350
E2B0
1001
DCO15
1040
1621747992.687
  0
DICTIONARY
  5
41C3
102
{ACAD_REACTORS
330
7
102
}
330
7
100
AcDbDictionary
281
     1
  3
ACET-OVERKILL-FUZZ
350
FA79
  3
ACET-OVERKILL-NO-ENDTOEND
350
FA7C
  3
ACET-OVERKILL-NO-PARTIAL
350
FA7B
  3
ACET-OVERKILL-NO-PLINES
350
FA7A
  0
XRECORD
  5
FA81
102
{ACAD_REACTORS
330
7
102
}
330
7
100
AcDbXrecord
280
     1
  1
DWGPROPS COOKIE
  2

  3

  4

  6

  7

  8
anna.ciezak
  9

300
=
301
=
302
=
303
=
304
=
305
=
306
=
307
=
308
=
309
=
 40
8.230814861111111
 41
2452027.670547454
 42
2454573.443248692
  1

 90
        0
  0
DICTIONARY
  5
8311
102
{ACAD_REACTORS
330
12
102
}
330
12
100
AcDbDictionary
281
     1
  0
DICTIONARY
  5
13
102
{ACAD_REACTORS
330
12
102
}
330
12
100
AcDbDictionary
281
     1
  0
DICTIONARY
  5
8310
102
{ACAD_REACTORS
330
12
102
}
330
12
100
AcDbDictionary
281
     1
1001
ACAD
1000
<All
  0
SORTENTSTABLE
  5
1FF0
102
{ACAD_REACTORS
330
1FEF
102
}
330
1FEF
100
AcDbSortentsTable
330
2
331
F7F8
  5
F7F8
331
F7B9
  5
F7B9
331
F782
  5
F782
331
F743
  5
F743
331
F70C
  5
F70C
331
F800
  5
F800
331
F7C1
  5
F7C1
331
F78A
  5
F78A
331
F74B
  5
F74B
331
F714
  5
F714
331
F808
  5
F808
331
F7C9
  5
F7C9
331
F792
  5
F792
331
F753
  5
F753
331
F71C
  5
F71C
331
F7D1
  5
F7D1
331
F79A
  5
F79A
331
F75B
  5
F75B
331
F724
  5
F724
331
F7D9
  5
F7D9
331
F7A2
  5
F7A2
331
F763
  5
F763
331
F72C
  5
F72C
331
F6ED
  5
F6ED
331
F7E1
  5
F7E1
331
F7AA
  5
F7AA
331
F76B
  5
F76B
331
F734
  5
F734
331
F6F5
  5
F6F5
331
F7E9
  5
F7E9
331
F7B2
  5
F7B2
331
F773
  5
F773
331
F73C
  5
F73C
331
F6FD
  5
F6FD
331
F7F1
  5
F7F1
331
F77B
  5
F77B
331
F705
  5
F705
331
F7F9
  5
F7F9
331
F7BA
  5
F7BA
331
F783
  5
F783
331
F744
  5
F744
331
F70D
  5
F70D
331
F801
  5
F801
331
F7C2
  5
F7C2
331
F78B
  5
F78B
331
F74C
  5
F74C
331
F715
  5
F715
331
F809
  5
F809
331
F7CA
  5
F7CA
331
F793
  5
F793
331
F754
  5
F754
331
F71D
  5
F71D
331
F7D2
  5
F7D2
331
F79B
  5
F79B
331
F75C
  5
F75C
331
F725
  5
F725
331
F7DA
  5
F7DA
331
F7A3
  5
F7A3
331
F764
  5
F764
331
F72D
  5
F72D
331
F6EE
  5
F6EE
331
F7E2
  5
F7E2
331
F7AB
  5
F7AB
331
F76C
  5
F76C
331
F735
  5
F735
331
F6F6
  5
F6F6
331
F7EA
  5
F7EA
331
F7B3
  5
F7B3
331
F774
  5
F774
331
F73D
  5
F73D
331
F6FE
  5
F6FE
331
F7F2
  5
F7F2
331
F77C
  5
F77C
331
F706
  5
F706
331
FA75
  5
FA75
331
F7FA
  5
F7FA
331
F7BB
  5
F7BB
331
F784
  5
F784
331
F745
  5
F745
331
F70E
  5
F70E
331
F802
  5
F802
331
F7C3
  5
F7C3
331
F78C
  5
F78C
331
F74D
  5
F74D
331
F716
  5
F716
331
F80A
  5
F80A
331
F7CB
  5
F7CB
331
F794
  5
F794
331
F755
  5
F755
331
F71E
  5
F71E
331
F7D3
  5
F7D3
331
F79C
  5
F79C
331
F75D
  5
F75D
331
F726
  5
F726
331
F7DB
  5
F7DB
331
F7A4
  5
F7A4
331
F765
  5
F765
331
F72E
  5
F72E
331
F6EF
  5
F6EF
331
F7E3
  5
F7E3
331
F7AC
  5
F7AC
331
F76D
  5
F76D
331
F736
  5
F736
331
F6F7
  5
F6F7
331
F7EB
  5
F7EB
331
F7B4
  5
F7B4
331
F775
  5
F775
331
F73E
  5
F73E
331
F6FF
  5
F6FF
331
F7F3
  5
F7F3
331
F77D
  5
F77D
331
F707
  5
F707
331
FA76
  5
FA76
331
F7FB
  5
F7FB
331
F7BC
  5
F7BC
331
F785
  5
F785
331
F746
  5
F746
331
F70F
  5
F70F
331
F803
  5
F803
331
F7C4
  5
F7C4
331
F78D
  5
F78D
331
F74E
  5
F74E
331
F717
  5
F717
331
F80B
  5
F80B
331
F7CC
  5
F7CC
331
F795
  5
F795
331
F756
  5
F756
331
F71F
  5
F71F
331
F7D4
  5
F7D4
331
F79D
  5
F79D
331
F75E
  5
F75E
331
F727
  5
F727
331
F6E8
  5
F6E8
331
F7DC
  5
F7DC
331
F7A5
  5
F7A5
331
F766
  5
F766
331
F72F
  5
F72F
331
F6F0
  5
F6F0
331
F7E4
  5
F7E4
331
F7AD
  5
F7AD
331
F76E
  5
F76E
331
F737
  5
F737
331
F6F8
  5
F6F8
331
F7EC
  5
F7EC
331
F7B5
  5
F7B5
331
F776
  5
F776
331
F73F
  5
F73F
331
F700
  5
F700
331
F7F4
  5
F7F4
331
F77E
  5
F77E
331
FA77
  5
FA77
331
F708
  5
F708
331
F7FC
  5
F7FC
331
F7BD
  5
F7BD
331
F786
  5
F786
331
F747
  5
F747
331
F710
  5
F710
331
F804
  5
F804
331
F7C5
  5
F7C5
331
F78E
  5
F78E
331
F74F
  5
F74F
331
F718
  5
F718
331
F80C
  5
F80C
331
F7CD
  5
F7CD
331
F796
  5
F796
331
F757
  5
F757
331
F720
  5
F720
331
F7D5
  5
F7D5
331
F79E
  5
F79E
331
F75F
  5
F75F
331
F728
  5
F728
331
F6E9
  5
F6E9
331
F7DD
  5
F7DD
331
F7A6
  5
F7A6
331
F767
  5
F767
331
F730
  5
F730
331
F6F1
  5
F6F1
331
F7E5
  5
F7E5
331
F7AE
  5
F7AE
331
F76F
  5
F76F
331
F738
  5
F738
331
F6F9
  5
F6F9
331
F7ED
  5
F7ED
331
F7B6
  5
F7B6
331
F777
  5
F777
331
F701
  5
F701
331
F7F5
  5
F7F5
331
F77F
  5
F77F
331
FA78
  5
FA78
331
F740
  5
F740
331
F709
  5
F709
331
F7FD
  5
F7FD
331
F7BE
  5
F7BE
331
F787
  5
F787
331
F748
  5
F748
331
F711
  5
F711
331
F805
  5
F805
331
F7C6
  5
F7C6
331
F78F
  5
F78F
331
F750
  5
F750
331
F719
  5
F719
331
F7CE
  5
F7CE
331
F797
  5
F797
331
F758
  5
F758
331
F721
  5
F721
331
F7D6
  5
F7D6
331
F79F
  5
F79F
331
F760
  5
F760
331
F729
  5
F729
331
F6EA
  5
F6EA
331
F7DE
  5
F7DE
331
F7A7
  5
F7A7
331
F768
  5
F768
331
F731
  5
F731
331
F6F2
  5
F6F2
331
F7E6
  5
F7E6
331
F7AF
  5
F7AF
331
F770
  5
F770
331
F739
  5
F739
331
F6FA
  5
F6FA
331
F7EE
  5
F7EE
331
F7B7
  5
F7B7
331
F778
  5
F778
331
F702
  5
F702
331
F7F6
  5
F7F6
331
F780
  5
F780
331
F741
  5
F741
331
F70A
  5
F70A
331
F7FE
  5
F7FE
331
F7BF
  5
F7BF
331
F788
  5
F788
331
F749
  5
F749
331
F712
  5
F712
331
F806
  5
F806
331
F7C7
  5
F7C7
331
F790
  5
F790
331
F751
  5
F751
331
F71A
  5
F71A
331
F7CF
  5
F7CF
331
F798
  5
F798
331
F759
  5
F759
331
F722
  5
F722
331
F7D7
  5
F7D7
331
F7A0
  5
F7A0
331
F761
  5
F761
331
F72A
  5
F72A
331
F6EB
  5
F6EB
331
F7DF
  5
F7DF
331
F7A8
  5
F7A8
331
F769
  5
F769
331
F732
  5
F732
331
F6F3
  5
F6F3
331
F7E7
  5
F7E7
331
F7B0
  5
F7B0
331
F771
  5
F771
331
F73A
  5
F73A
331
F6FB
  5
F6FB
331
F7EF
  5
F7EF
331
F779
  5
F779
331
F703
  5
F703
331
F7F7
  5
F7F7
331
F7B8
  5
F7B8
331
F781
  5
F781
331
F742
  5
F742
331
F70B
  5
F70B
331
F7FF
  5
F7FF
331
F7C0
  5
F7C0
331
F789
  5
F789
331
F74A
  5
F74A
331
F713
  5
F713
331
F807
  5
F807
331
F7C8
  5
F7C8
331
F791
  5
F791
331
F752
  5
F752
331
F71B
  5
F71B
331
F7D0
  5
F7D0
331
F799
  5
F799
331
F75A
  5
F75A
331
F723
  5
F723
331
F7D8
  5
F7D8
331
F7A1
  5
F7A1
331
F762
  5
F762
331
F72B
  5
F72B
331
F6EC
  5
F6EC
331
F7E0
  5
F7E0
331
F7A9
  5
F7A9
331
F76A
  5
F76A
331
F733
  5
F733
331
F6F4
  5
F6F4
331
F7E8
  5
F7E8
331
F7B1
  5
F7B1
331
F772
  5
F772
331
F73B
  5
F73B
331
F6FC
  5
F6FC
331
F7F0
  5
F7F0
331
F77A
  5
F77A
331
F704
  5
F704
  0
SORTENTSTABLE
  5
117C
102
{ACAD_REACTORS
330
24
102
}
330
24
100
AcDbSortentsTable
330
23
  0
LAYOUT
  5
10
102
{ACAD_XDICTIONARY
360
FA84
102
}
102
{ACAD_REACTORS
330
B
102
}
330
B
100
AcDbPlotSettings
  1

  2
C:\PROGRAM FILES\AUTOCAD LT 2000\plotters\DWF ePlot.pc3
  4

  6

 40
0.0
 41
0.0
 42
0.0
 43
0.0
 44
0.0
 45
0.0
 46
0.0
 47
0.0
 48
0.0
 49
0.0
140
0.0
141
0.0
142
1.0
143
1.0
 70
   688
 72
     0
 73
     0
 74
     5
  7
monochrome_140.ctb
 75
    16
147
1.0
148
0.0
149
0.0
100
AcDbLayout
  1
Layout1
 70
     1
 71
     1
 10
0.0
 20
0.0
 11
420.0
 21
297.0
 12
0.0
 22
0.0
 32
0.0
 14
1.000000000000000E+20
 24
1.000000000000000E+20
 34
1.000000000000000E+20
 15
-1.000000000000000E+20
 25
-1.000000000000000E+20
 35
-1.000000000000000E+20
146
0.0
 13
0.0
 23
0.0
 33
0.0
 16
1.0
 26
0.0
 36
0.0
 17
0.0
 27
1.0
 37
0.0
 76
     0
330
D
  0
LAYOUT
  5
A
102
{ACAD_XDICTIONARY
360
FA82
102
}
102
{ACAD_REACTORS
330
B
102
}
330
B
100
AcDbPlotSettings
  1

  2
PDFCreator
  4
A4
  6
RODODENDRON 5
 40
3.174999952316284
 41
3.174999952316284
 42
3.175003051757812
 43
3.17498779296875
 44
209.8886566162109
 45
297.0530090332031
 46
-0.230673193931878
 47
5.151510643959028
 48
215187.2000545948
 49
127657.5157057546
140
225387.2000545948
141
141677.5157057546
142
1.0
143
50.0
 70
 11956
 72
     1
 73
     0
 74
     4
  7
monochrome_140.ctb
 75
    25
147
0.02
148
-215187.2000545948
149
-127657.5157057546
100
AcDbLayout
  1
Model
 70
     1
 71
     0
 10
0.0
 20
0.0
 11
12.0
 21
9.0
 12
0.0
 22
0.0
 32
0.0
 14
0.0
 24
0.0
 34
0.0
 15
0.0
 25
0.0
 35
0.0
146
0.0
 13
0.0
 23
0.0
 33
0.0
 16
1.0
 26
0.0
 36
0.0
 17
0.0
 27
1.0
 37
0.0
 76
     0
330
2
331
1728
1001
ACAD_PSEXT
1000
PDFCreator
1000
PDFCreator
1000
PDFCreator:
1000
eDoc Printer
1070
     0
  0
MATERIAL
  5
172B
102
{ACAD_XDICTIONARY
360
FA8A
102
}
102
{ACAD_REACTORS
330
30
102
}
330
30
100
AcDbMaterial
  1
ByBlock
  0
MATERIAL
  5
172A
102
{ACAD_XDICTIONARY
360
FA88
102
}
102
{ACAD_REACTORS
330
30
102
}
330
30
100
AcDbMaterial
  1
ByLayer
  0
MATERIAL
  5
172C
102
{ACAD_XDICTIONARY
360
FA8C
102
}
102
{ACAD_REACTORS
330
30
102
}
330
30
100
AcDbMaterial
  1
Global
  0
MLINESTYLE
  5
33
102
{ACAD_REACTORS
330
2E
102
}
330
2E
100
AcDbMlineStyle
  2
STANDARD
 70
     0
  3

 62
   256
 51
90.0
 52
90.0
 71
     2
 49
0.5
 62
   256
  6
BYLAYER
 49
-0.5
 62
   256
  6
BYLAYER
  0
ACDBPLACEHOLDER
  5
5
102
{ACAD_REACTORS
330
6
102
}
330
6
  0
TABLESTYLE
  5
DF3
102
{ACAD_XDICTIONARY
360
FA86
102
}
102
{ACAD_REACTORS
330
DF2
102
}
330
DF2
100
AcDbTableStyle
  3
Standard
 70
     0
 71
     0
 40
0.06
 41
0.06
280
     0
281
     0
  7
Standard
140
0.18
170
     2
 62
     0
 63
     7
283
     0
274
    -2
284
     1
 64
     0
275
    -2
285
     1
 65
     0
276
    -2
286
     1
 66
     0
277
    -2
287
     1
 67
     0
278
    -2
288
     1
 68
     0
279
    -2
289
     1
 69
     0
  7
Standard
140
0.25
170
     5
 62
     0
 63
     7
283
     0
274
    -2
284
     1
 64
     0
275
    -2
285
     1
 65
     0
276
    -2
286
     1
 66
     0
277
    -2
287
     1
 67
     0
278
    -2
288
     1
 68
     0
279
    -2
289
     1
 69
     0
  7
Standard
140
0.18
170
     5
 62
     0
 63
     7
283
     0
274
    -2
284
     1
 64
     0
275
    -2
285
     1
 65
     0
276
    -2
286
     1
 66
     0
277
    -2
287
     1
 67
     0
278
    -2
288
     1
 68
     0
279
    -2
289
     1
 69
     0
  0
VISUALSTYLE
  5
1733
102
{ACAD_REACTORS
330
172D
102
}
330
172D
100
AcDbVisualStyle
  2
2dWireframe
 70
     4
 71
     0
 72
     2
 73
     0
 90
        0
 40
-0.6
 41
-30.0
 62
     5
 63
     7
 74
     1
 91
        4
 64
     7
 65
   257
 75
     1
175
     1
 42
1.0
 92
        0
 66
   257
 43
1.0
 76
     1
 77
     6
 78
     2
 67
     7
 79
     5
170
     0
171
     0
290
     0
174
     0
 93
        1
 44
0.0
173
     0
291
     0
 45
0.0
1001
ACAD
1000
AcDbSavedByObjectVersion
1070
     0
  0
VISUALSTYLE
  5
FA66
102
{ACAD_REACTORS
330
172D
102
}
330
172D
100
AcDbVisualStyle
  2
3D Hidden
 70
     6
 71
     1
 72
     2
 73
     2
 90
        0
 40
-0.6
 41
-30.0
 62
     5
 63
     7
 74
     2
 91
        2
 64
     7
 65
   257
 75
     2
175
     1
 42
40.0
 92
        0
 66
   257
 43
1.0
 76
     1
 77
     6
 78
     2
 67
     7
 79
     3
170
     0
171
     0
290
     0
174
     0
 93
        1
 44
0.0
173
     0
291
     0
 45
0.0
1001
ACAD
1000
AcDbSavedByObjectVersion
1070
     0
  0
VISUALSTYLE
  5
FA67
102
{ACAD_REACTORS
330
172D
102
}
330
172D
100
AcDbVisualStyle
  2
3dWireframe
 70
     5
 71
     0
 72
     2
 73
     0
 90
        0
 40
-0.6
 41
-30.0
 62
     5
 63
     7
 74
     1
 91
        4
 64
     7
 65
   257
 75
     1
175
     1
 42
1.0
 92
        0
 66
   257
 43
1.0
 76
     1
 77
     6
 78
     2
 67
     7
 79
     5
170
     0
171
     0
290
     0
174
     0
 93
        1
 44
0.0
173
     0
291
     0
 45
0.0
1001
ACAD
1000
AcDbSavedByObjectVersion
1070
     0
  0
VISUALSTYLE
  5
1732
102
{ACAD_REACTORS
330
172D
102
}
330
172D
100
AcDbVisualStyle
  2
Basic
 70
     7
 71
     1
 72
     0
 73
     1
 90
        0
 40
-0.6
 41
-30.0
 62
     5
 63
     7
 74
     0
 91
        4
 64
     7
 65
   257
 75
     1
175
     1
 42
1.0
 92
        8
 66
     7
 43
1.0
 76
     1
 77
     6
 78
     2
 67
     7
 79
     5
170
     0
171
     0
290
     0
174
     0
 93
        1
 44
0.0
173
     0
291
     1
 45
0.0
1001
ACAD
1000
AcDbSavedByObjectVersion
1070
     0
  0
VISUALSTYLE
  5
1739
102
{ACAD_REACTORS
330
172D
102
}
330
172D
100
AcDbVisualStyle
  2
Brighten
 70
    12
 71
     2
 72
     2
 73
     0
 90
        0
 40
-0.6
 41
-30.0
 62
     5
 63
     7
 74
     1
 91
        4
 64
     7
 65
   257
 75
     1
175
     1
 42
1.0
 92
        8
 66
     7
 43
1.0
 76
     1
 77
     6
 78
     2
 67
     7
 79
     5
170
     0
171
     0
290
     0
174
     0
 93
        1
 44
50.0
173
     0
291
     1
 45
0.0
1001
ACAD
1000
AcDbSavedByObjectVersion
1070
     0
  0
VISUALSTYLE
  5
173D
102
{ACAD_REACTORS
330
172D
102
}
330
172D
100
AcDbVisualStyle
  2
ColorChange
 70
    16
 71
     2
 72
     2
 73
     3
 90
        0
 40
-0.6
 41
-30.0
 62
     5
 63
     8
 74
     1
 91
        4
 64
     7
 65
   257
 75
     1
175
     1
 42
1.0
 92
        8
 66
     8
 43
1.0
 76
     1
 77
     6
 78
     2
 67
     7
 79
     5
170
     0
171
     0
290
     0
174
     0
 93
        1
 44
0.0
173
     0
291
     1
 45
0.0
1001
ACAD
1000
AcDbSavedByObjectVersion
1070
     0
  0
VISUALSTYLE
  5
FA68
102
{ACAD_REACTORS
330
172D
102
}
330
172D
100
AcDbVisualStyle
  2
Conceptual
 70
     9
 71
     3
 72
     2
 73
     0
 90
        0
 40
-0.6
 41
-30.0
 62
     5
 63
     7
 74
     2
 91
        2
 64
     7
 65
   257
 75
     1
175
     1
 42
40.0
 92
        8
 66
     7
 43
1.0
 76
     1
 77
     6
 78
     2
 67
     7
 79
     3
170
     0
171
     0
290
     0
174
     0
 93
        1
 44
0.0
173
     0
291
     0
 45
0.0
1001
ACAD
1000
AcDbSavedByObjectVersion
1070
     0
  0
VISUALSTYLE
  5
1738
102
{ACAD_REACTORS
330
172D
102
}
330
172D
100
AcDbVisualStyle
  2
Dim
 70
    11
 71
     2
 72
     2
 73
     0
 90
        0
 40
-0.6
 41
-30.0
 62
     5
 63
     7
 74
     1
 91
        4
 64
     7
 65
   257
 75
     1
175
     1
 42
1.0
 92
        8
 66
     7
 43
1.0
 76
     1
 77
     6
 78
     2
 67
     7
 79
     5
170
     0
171
     0
290
     0
174
     0
 93
        1
 44
-50.0
173
     0
291
     1
 45
0.0
1001
ACAD
1000
AcDbSavedByObjectVersion
1070
     0
  0
VISUALSTYLE
  5
173C
102
{ACAD_REACTORS
330
172D
102
}
330
172D
100
AcDbVisualStyle
  2
Facepattern
 70
    15
 71
     2
 72
     2
 73
     0
 90
        0
 40
-0.6
 41
-30.0
 62
     5
 63
     7
 74
     1
 91
        4
 64
     7
 65
   257
 75
     1
175
     1
 42
1.0
 92
        8
 66
     7
 43
1.0
 76
     1
 77
     6
 78
     2
 67
     7
 79
     5
170
     0
171
     0
290
     0
174
     0
 93
        1
 44
0.0
173
     0
291
     1
 45
0.0
1001
ACAD
1000
AcDbSavedByObjectVersion
1070
     0
  0
VISUALSTYLE
  5
172E
102
{ACAD_REACTORS
330
172D
102
}
330
172D
100
AcDbVisualStyle
  2
Flat
 70
     0
 71
     2
 72
     1
 73
     1
 90
        2
 40
-0.6
 41
30.0
 62
     5
 63
     7
 74
     0
 91
        4
 64
     7
 65
   257
 75
     1
175
     1
 42
1.0
 92
        8
 66
     7
 43
1.0
 76
     1
 77
     6
 78
     2
 67
     7
 79
     5
170
     0
171
     0
290
     0
174
     0
 93
       13
 44
0.0
173
     0
291
     1
 45
0.0
1001
ACAD
1000
AcDbSavedByObjectVersion
1070
     0
  0
VISUALSTYLE
  5
172F
102
{ACAD_REACTORS
330
172D
102
}
330
172D
100
AcDbVisualStyle
  2
FlatWithEdges
 70
     1
 71
     2
 72
     1
 73
     1
 90
        2
 40
-0.6
 41
30.0
 62
     5
 63
     7
 74
     1
 91
        4
 64
     7
 65
   257
 75
     1
175
     1
 42
1.0
 92
        0
 66
   257
 43
1.0
 76
     1
 77
     6
 78
     2
 67
     7
 79
     5
170
     0
171
     0
290
     0
174
     0
 93
       13
 44
0.0
173
     0
291
     1
 45
0.0
1001
ACAD
1000
AcDbSavedByObjectVersion
1070
     0
  0
VISUALSTYLE
  5
1730
102
{ACAD_REACTORS
330
172D
102
}
330
172D
100
AcDbVisualStyle
  2
Gouraud
 70
     2
 71
     2
 72
     2
 73
     1
 90
        2
 40
-0.6
 41
30.0
 62
     5
 63
     7
 74
     0
 91
        4
 64
     7
 65
   257
 75
     1
175
     1
 42
1.0
 92
        0
 66
     7
 43
1.0
 76
     1
 77
     6
 78
     2
 67
     7
 79
     5
170
     0
171
     0
290
     0
174
     0
 93
       13
 44
0.0
173
     0
291
     1
 45
0.0
1001
ACAD
1000
AcDbSavedByObjectVersion
1070
     0
  0
VISUALSTYLE
  5
1731
102
{ACAD_REACTORS
330
172D
102
}
330
172D
100
AcDbVisualStyle
  2
GouraudWithEdges
 70
     3
 71
     2
 72
     2
 73
     1
 90
        2
 40
-0.6
 41
30.0
 62
     5
 63
     7
 74
     1
 91
        4
 64
     7
 65
   257
 75
     1
175
     1
 42
1.0
 92
        0
 66
   257
 43
1.0
 76
     1
 77
     6
 78
     2
 67
     7
 79
     5
170
     0
171
     0
290
     0
174
     0
 93
       13
 44
0.0
173
     0
291
     1
 45
0.0
1001
ACAD
1000
AcDbSavedByObjectVersion
1070
     0
  0
VISUALSTYLE
  5
173B
102
{ACAD_REACTORS
330
172D
102
}
330
172D
100
AcDbVisualStyle
  2
Linepattern
 70
    14
 71
     2
 72
     2
 73
     0
 90
        0
 40
-0.6
 41
-30.0
 62
     5
 63
     7
 74
     1
 91
        4
 64
     7
 65
   257
 75
     7
175
     7
 42
1.0
 92
        8
 66
     7
 43
1.0
 76
     1
 77
     6
 78
     2
 67
     7
 79
     5
170
     0
171
     0
290
     0
174
     0
 93
        1
 44
0.0
173
     0
291
     1
 45
0.0
1001
ACAD
1000
AcDbSavedByObjectVersion
1070
     0
  0
VISUALSTYLE
  5
FA69
102
{ACAD_REACTORS
330
172D
102
}
330
172D
100
AcDbVisualStyle
  2
Realistic
 70
     8
 71
     2
 72
     2
 73
     0
 90
        0
 40
-0.6
 41
-30.0
 62
     5
 63
     7
 74
     1
 91
        0
 64
     7
 65
   257
 75
     1
175
     1
 42
1.0
 92
        8
 66
     8
 43
1.0
 76
     1
 77
     6
 78
     2
 67
     7
 79
     5
170
     0
171
     0
290
     0
174
     0
 93
       13
 44
0.0
173
     0
291
     0
 45
0.0
1001
ACAD
1000
AcDbSavedByObjectVersion
1070
     0
  0
VISUALSTYLE
  5
173A
102
{ACAD_REACTORS
330
172D
102
}
330
172D
100
AcDbVisualStyle
  2
Thicken
 70
    13
 71
     2
 72
     2
 73
     0
 90
        0
 40
-0.6
 41
-30.0
 62
     5
 63
     7
 74
     1
 91
        4
 64
     7
 65
   257
 75
     1
175
     1
 42
1.0
 92
       12
 66
     7
 43
1.0
 76
     1
 77
     6
 78
     2
 67
     7
 79
     5
170
     0
171
     0
290
     0
174
     0
 93
        1
 44
0.0
173
     0
291
     1
 45
0.0
1001
ACAD
1000
AcDbSavedByObjectVersion
1070
     0
  0
DICTIONARY
  5
830A
102
{ACAD_REACTORS
330
8309
102
}
330
8309
100
AcDbDictionary
280
     1
281
     1
  3
Standards
360
830B
  0
DICTIONARYVAR
  5
E05
102
{ACAD_REACTORS
330
E04
102
}
330
E04
100
DictionaryVariables
280
     0
  1
STANDARD
  0
DICTIONARYVAR
  5
FA80
102
{ACAD_REACTORS
330
E04
102
}
330
E04
100
DictionaryVariables
280
     0
  1
1
  0
DICTIONARYVAR
  5
FA7F
102
{ACAD_REACTORS
330
E04
102
}
330
E04
100
DictionaryVariables
280
     0
  1
1
  0
DICTIONARYVAR
  5
FA7E
102
{ACAD_REACTORS
330
E04
102
}
330
E04
100
DictionaryVariables
280
     0
  1
0
  0
DICTIONARYVAR
  5
FA7D
102
{ACAD_REACTORS
330
E04
102
}
330
E04
100
DictionaryVariables
280
     0
  1
127
  0
XRECORD
  5
E2B0
102
{ACAD_REACTORS
330
E2AF
102
}
330
E2AF
100
AcDbXrecord
280
     1
330
F3BA
330
F3BB
330
F3C0
330
F3C1
330
F3C7
330
F3C8
330
F3CF
330
F3D0
330
F3D5
330
F3D6
330
F3DC
330
F3DD
330
F3E3
330
F3E4
330
F3EB
330
F3EC
330
F3F1
330
F3F2
330
F3F9
330
F3FA
330
F400
330
F401
330
F406
330
F407
330
F40E
330
F40F
330
F415
330
F416
330
F41B
330
F41C
330
F423
330
F424
330
F429
330
F42A
330
F432
330
F433
330
F439
330
F43A
330
F442
330
F443
330
F449
330
F44A
330
F4EB
330
F4EC
330
F4F2
330
F4F3
330
F4F9
330
F4FA
330
F4BF
330
F4C0
330
F4CA
330
F4CB
330
F4D7
330
F4D8
330
F4E2
330
F4E3
330
F684
330
F685
330
F68B
330
F68C
330
F692
330
F693
330
F6BB
330
F6BC
330
F6C2
330
F6C3
330
F6CB
330
F6CC
330
F6D2
330
F6D3
330
F9DE
330
F9DF
330
F9E5
330
F9E6
330
F9EC
330
F9ED
330
F9F5
330
F9F6
330
F9FC
330
F9FD
330
FA05
330
FA06
330
FA0C
330
FA0D
330
FA13
330
FA14
330
FA1A
330
FA1B
330
FA21
330
FA22
330
FA2A
330
FA2B
330
FA31
330
FA32
330
FA3A
330
FA3B
330
FA41
330
FA42
  0
XRECORD
  5
FA79
102
{ACAD_REACTORS
330
41C3
102
}
330
41C3
100
AcDbXrecord
280
     1
 40
0.000001
  0
XRECORD
  5
FA7C
102
{ACAD_REACTORS
330
41C3
102
}
330
41C3
100
AcDbXrecord
280
     1
 70
     0
  0
XRECORD
  5
FA7B
102
{ACAD_REACTORS
330
41C3
102
}
330
41C3
100
AcDbXrecord
280
     1
 70
     0
  0
XRECORD
  5
FA7A
102
{ACAD_REACTORS
330
41C3
102
}
330
41C3
100
AcDbXrecord
280
     1
 70
     0
  0
DICTIONARY
  5
FA84
330
10
100
AcDbDictionary
280
     1
281
     1
  3
ACAD_XREC_ROUNDTRIP
360
FA85
  0
DICTIONARY
  5
FA82
330
A
100
AcDbDictionary
280
     1
281
     1
  3
ACAD_XREC_ROUNDTRIP
360
FA83
  0
DICTIONARY
  5
FA8A
330
172B
100
AcDbDictionary
280
     1
281
     1
  3
ACAD_XREC_ROUNDTRIP
360
FA8B
  0
DICTIONARY
  5
FA88
330
172A
100
AcDbDictionary
280
     1
281
     1
  3
ACAD_XREC_ROUNDTRIP
360
FA89
  0
DICTIONARY
  5
FA8C
330
172C
100
AcDbDictionary
280
     1
281
     1
  3
ACAD_XREC_ROUNDTRIP
360
FA8D
  0
DICTIONARY
  5
FA86
330
DF3
100
AcDbDictionary
280
     1
281
     1
  3
ACAD_XREC_ROUNDTRIP
360
FA87
  0
BINRECORD
  5
830B
102
{ACAD_REACTORS
330
830A
102
}
330
830A
100
AcAecBinRecord
 90
        0
 91
    19403
 70
     0
310
0100FFFEFF0D4100490041002000560065007200730069006F006E00200033000500FFFF01001C004163416563556B4C6179657244657363726970746976654669656C64FFFEFF154400690073006300690070006C0069006E0065002000440065007300690067006E00610074006F0072000102000000007B333637354541
310
46100100002100000070BA406CD0EA76040B00FFFEFF001500FFFEFF01440002000000FFFEFF07500072006F0063006500730073000E00FFFEFF01440002000000FFFEFF12500072006F0063006500730073002000440065006D006F006C006900740069006F006E00000000000000FFFEFF01560002000000FFFEFF0E5000
310
72006F0063006500730073002000560061006300750075006D00000000000000FFFEFF01450002000000FFFEFF12500072006F006300650073007300200045006C0065006300740072006900630061006C00000000000000FFFEFF01570002000000FFFEFF0E500072006F0063006500730073002000570061007400650072
310
007300000000000000FFFEFF01580002000000FFFEFF0F500072006F00630065007300730020004500780068006100750073007400000000000000FFFEFF01470002000000FFFEFF0D500072006F006300650073007300200047006100730065007300000000000000FFFEFF014F0002000000FFFEFF0B500072006F006300
310
65007300730020004F0069006C00000000000000FFFEFF01500002000000FFFEFF0E500072006F006300650073007300200050006900700069006E006700000000000000FFFEFF01510002000000FFFEFF11500072006F0063006500730073002000450071007500690070006D0065006E007400000000000000FFFEFF0152
310
0002000000FFFEFF19500072006F006300650073007300200044007200610069006E0073002000260020005200650063006C00610069006D007300000000000000FFFEFF01410002000000FFFEFF0C500072006F00630065007300730020004100690072007300000000000000FFFEFF01530002000000FFFEFF0C50007200
310
6F00630065007300730020005300690074006500000000000000FFFEFF01540002000000FFFEFF18500072006F006300650073007300200045006E0074007200610069006E0065006400200053006F006C00690064007300000000000000FFFEFF01430002000000FFFEFF11500072006F0063006500730073002000430068
310
0065006D006900630061006C00730000000000000000000000FFFEFF01560002000000FFFEFF1053007500720076006500790020002F0020004D0061007000700069006E0067000500FFFEFF01460002000000FFFEFF0C4600690065006C0064002000530075007200760065007900000000000000FFFEFF01490002000000
310
FFFEFF0E4400690067006900740061006C002000530075007200760065007900000000000000FFFEFF014A0002000000FFFEFF1F53007500720076006500790020002F0020004D0061007000700069006E006700200028005500730065007200200044006500660069006E00650064002900000000000000FFFEFF014B0002
310
000000FFFEFF1F53007500720076006500790020002F0020004D0061007000700069006E006700200028005500730065007200200044006500660069006E00650064002900000000000000FFFEFF01410002000000FFFEFF0D410065007200690061006C00200053007500720076006500790000000000000000000000FFFE
310
FF01450002000000FFFEFF0A45006C0065006300740072006900630061006C000900FFFEFF01440002000000FFFEFF1545006C0065006300740072006900630061006C002000440065006D006F006C006900740069006F006E00000000000000FFFEFF01590002000000FFFEFF1C45006C0065006300740072006900630061
310
006C00200041007500780069006C0069006100720079002000530079007300740065006D007300000000000000FFFEFF01490002000000FFFEFF1A45006C0065006300740072006900630061006C00200049006E0073007400720075006D0065006E0074006100740069006F006E00000000000000FFFEFF014A0002000000
310
FFFEFF1945006C0065006300740072006900630061006C00200028005500730065007200200044006500660069006E00650064002900000000000000FFFEFF014B0002000000FFFEFF1945006C0065006300740072006900630061006C00200028005500730065007200200044006500660069006E00650064002900000000
310
000000FFFEFF014C0002000000FFFEFF1345006C0065006300740072006900630061006C0020004C00690067006800740069006E006700000000000000FFFEFF01500002000000FFFEFF1045006C0065006300740072006900630061006C00200050006F00770065007200000000000000FFFEFF01530002000000FFFEFF0F
310
45006C0065006300740072006900630061006C0020005300690074006500000000000000FFFEFF01540002000000FFFEFF1D45006C0065006300740072006900630061006C002000540065006C00650063006F006D006D0075006E00690063006100740069006F006E00730000000000000000000000FFFEFF015700020000
310
00FFFEFF0B43006900760069006C00200057006F0072006B0073000200FFFEFF014A0002000000FFFEFF1A43006900760069006C00200057006F0072006B007300200028005500730065007200200044006500660069006E00650064002900000000000000FFFEFF014B0002000000FFFEFF1A43006900760069006C002000
310
57006F0072006B007300200028005500730065007200200044006500660069006E0065006400290000000000000000000000FFFEFF01460002000000FFFEFF0F46006900720065002000500072006F00740065006300740069006F006E000400FFFEFF014A0002000000FFFEFF134600690072006500200028005500730065
310
007200200044006500660069006E00650064002900000000000000FFFEFF014B0002000000FFFEFF134600690072006500200028005500730065007200200044006500660069006E00650064002900000000000000FFFEFF01410002000000FFFEFF184600690072006500200044006500740065006300740069006F006E00
310
200061006E006400200041006C00610072006D00000000000000FFFEFF01530002000000FFFEFF10460069007200650020005300750070007000720065007300730069006F006E0000000000000000000000FFFEFF01470002000000FFFEFF07470065006E006500720061006C000500FFFEFF01490002000000FFFEFF1347
310
0065006E006500720061006C00200049006E0066006F0072006D006100740069006F006E00000000000000FFFEFF014A0002000000FFFEFF16470065006E006500720061006C00200028005500730065007200200044006500660069006E00650064002900000000000000FFFEFF014B0002000000FFFEFF16470065006E00
310
6500720061006C00200028005500730065007200200044006500660069006E00650064002900000000000000FFFEFF01520002000000FFFEFF10470065006E006500720061006C0020005200650073006F007500720063006500000000000000FFFEFF01430002000000FFFEFF13470065006E006500720061006C00200043
310
006F006E0074007200610063007400750061006C0000000000000000000000FFFEFF01580002000000FFFEFF114F00740068006500720020004400690073006300690070006C0069006E00650073000200FFFEFF014A0002000000FFFEFF204F00740068006500720020004400690073006300690070006C0069006E006500
310
7300200028005500730065007200200044006500660069006E00650064002900000000000000FFFEFF014B0002000000FFFEFF204F00740068006500720020004400690073006300690070006C0069006E0065007300200028005500730065007200200044006500660069006E0065006400290000000000000000000000FF
310
FEFF01480002000000FFFEFF13480061007A006100720064006F007500730020004D006100740065007200690061006C0073000700FFFEFF014A0002000000FFFEFF22480061007A006100720064006F007500730020004D006100740065007200690061006C00730020002800550073006500720020004400650066006900
310
6E00650064002900000000000000FFFEFF014B0002000000FFFEFF22480061007A006100720064006F007500730020004D006100740065007200690061006C007300200028005500730065007200200044006500660069006E00650064002900000000000000FFFEFF014C0002000000FFFEFF044C00650061006400000000
310
000000FFFEFF01500002000000FFFEFF03500043004200000000000000FFFEFF01520002000000FFFEFF0C5200650066007200690067006500720061006E0074007300000000000000FFFEFF01410002000000FFFEFF084100730062006500730074006F007300000000000000FFFEFF01430002000000FFFEFF0943006800
310
65006D006900630061006C00730000000000000000000000FFFEFF01490002000000FFFEFF0949006E0074006500720069006F00720073000600FFFEFF01440002000000FFFEFF1349006E0074006500720069006F0072002000440065006D006F006C006900740069006F006E00000000000000FFFEFF01460002000000FF
310
FEFF1149006E0074006500720069006F0072002000460069006E0069007300680065007300000000000000FFFEFF01470002000000FFFEFF1249006E0074006500720069006F0072007300200047007200610070006800690063007300000000000000FFFEFF014A0002000000FFFEFF1849006E0074006500720069006F00
310
72007300200028005500730065007200200044006500660069006E00650064002900000000000000FFFEFF014B0002000000FFFEFF1849006E0074006500720069006F0072007300200028005500730065007200200044006500660069006E00650064002900000000000000FFFEFF014E0002000000FFFEFF0F49006E0074
310
006500720069006F0072002000440065007300690067006E0000000000000000000000FFFEFF015A0002000000FFFEFF1A43006F006E00740072006100630074006F00720020002F002000530068006F0070002000440072006100770069006E00670073000200FFFEFF014A0002000000FFFEFF2943006F006E0074007200
310
6100630074006F00720020002F002000530068006F0070002000440072006100770069006E0067007300200028005500730065007200200044006500660069006E00650064002900000000000000FFFEFF014B0002000000FFFEFF2943006F006E00740072006100630074006F00720020002F002000530068006F00700020
310
00440072006100770069006E0067007300200028005500730065007200200044006500660069006E0065006400290000000000000000000000FFFEFF014C0002000000FFFEFF094C0061006E006400730063006100700065000500FFFEFF01440002000000FFFEFF144C0061006E0064007300630061007000650020004400
310
65006D006F006C006900740069006F006E00000000000000FFFEFF01490002000000FFFEFF144C0061006E006400730063006100700065002000490072007200690067006100740069006F006E00000000000000FFFEFF014A0002000000FFFEFF184C0061006E006400730063006100700065002000280055007300650072
310
00200044006500660069006E00650064002900000000000000FFFEFF014B0002000000FFFEFF184C0061006E00640073006300610070006500200028005500730065007200200044006500660069006E00650064002900000000000000FFFEFF01500002000000FFFEFF124C0061006E006400730063006100700065002000
310
50006C0061006E00740069006E00670000000000000000000000FFFEFF014D0002000000FFFEFF0A4D0065006300680061006E006900630061006C000700FFFEFF01440002000000FFFEFF154D0065006300680061006E006900630061006C002000440065006D006F006C006900740069006F006E00000000000000FFFEFF
310
01480002000000FFFEFF0F4D0065006300680061006E006900630061006C0020004800560041004300000000000000FFFEFF01490002000000FFFEFF1A4D0065006300680061006E006900630061006C00200049006E0073007400720075006D0065006E0074006100740069006F006E00000000000000FFFEFF014A000200
310
0000FFFEFF194D0065006300680061006E006900630061006C00200028005500730065007200200044006500660069006E00650064002900000000000000FFFEFF014B0002000000FFFEFF194D0065006300680061006E006900630061006C00200028005500730065007200200044006500660069006E0065006400290000
310
0000000000FFFEFF01500002000000FFFEFF114D0065006300680061006E006900630061006C00200050006900700069006E006700000000000000FFFEFF01530002000000FFFEFF0F4D0065006300680061006E006900630061006C002000530069007400650000000000000000000000FFFEFF014F0002000000FFFEFF0A
310
4F007000650072006100740069006F006E0073000200FFFEFF014A0002000000FFFEFF194F007000650072006100740069006F006E007300200028005500730065007200200044006500660069006E00650064002900000000000000FFFEFF014B0002000000FFFEFF194F007000650072006100740069006F006E00730020
310
0028005500730065007200200044006500660069006E0065006400290000000000000000000000FFFEFF01500002000000FFFEFF0850006C0075006D00620069006E0067000600FFFEFF01440002000000FFFEFF1350006C0075006D00620069006E0067002000440065006D006F006C006900740069006F006E0000000000
310
0000FFFEFF014A0002000000FFFEFF1750006C0075006D00620069006E006700200028005500730065007200200044006500660069006E00650064002900000000000000FFFEFF014B0002000000FFFEFF1750006C0075006D00620069006E006700200028005500730065007200200044006500660069006E006500640029
310
00000000000000FFFEFF01500002000000FFFEFF0F50006C0075006D00620069006E006700200050006900700069006E006700000000000000FFFEFF01510002000000FFFEFF1250006C0075006D00620069006E0067002000450071007500690070006D0065006E007400000000000000FFFEFF01530002000000FFFEFF0D
310
50006C0075006D00620069006E0067002000530069007400650000000000000000000000FFFEFF01510002000000FFFEFF09450071007500690070006D0065006E0074001100FFFEFF01440002000000FFFEFF1344006500740065006E00740069006F006E002000450071007500690070006D0065006E0074000000000000
310
00FFFEFF01560002000000FFFEFF1C56006900640065006F002F00500068006F0074006F0067007200610070006800690063002000450071007500690070006D0065006E007400000000000000FFFEFF01450002000000FFFEFF1545006400750063006100740069006F006E0061006C002000450071007500690070006D00
310
65006E007400000000000000FFFEFF01460002000000FFFEFF1646006F006F006400200053006500720076006900630065002000450071007500690070006D0065006E007400000000000000FFFEFF01590002000000FFFEFF12530065006300750072006900740079002000450071007500690070006D0065006E00740000
310
0000000000FFFEFF01480002000000FFFEFF1248006F00730070006900740061006C002000450071007500690070006D0065006E007400000000000000FFFEFF014A0002000000FFFEFF18450071007500690070006D0065006E007400200028005500730065007200200044006500660069006E0065006400290000000000
310
0000FFFEFF014B0002000000FFFEFF18450071007500690070006D0065006E007400200028005500730065007200200044006500660069006E00650064002900000000000000FFFEFF014C0002000000FFFEFF144C00610062006F007200610074006F00720079002000450071007500690070006D0065006E007400000000
310
000000FFFEFF014D0002000000FFFEFF154D00610069006E00740065006E0061006E00630065002000450071007500690070006D0065006E007400000000000000FFFEFF01500002000000FFFEFF155000610072006B0069006E00670020004C006F0074002000450071007500690070006D0065006E007400000000000000
310
FFFEFF01520002000000FFFEFF10520065007400610069006C002000450071007500690070006D0065006E007400000000000000FFFEFF01410002000000FFFEFF124100740068006C0065007400690063002000450071007500690070006D0065006E007400000000000000FFFEFF01530002000000FFFEFF0E5300690074
310
0065002000450071007500690070006D0065006E007400000000000000FFFEFF01420002000000FFFEFF0E420061006E006B002000450071007500690070006D0065006E007400000000000000FFFEFF01540002000000FFFEFF145400680065006100740072006900630061006C002000450071007500690070006D006500
310
6E007400000000000000FFFEFF01430002000000FFFEFF16440072007900200043006C00650061006E0069006E0067002000450071007500690070006D0065006E00740000000000000000000000FFFEFF01410002000000FFFEFF0D4100720063006800690074006500630074007500720061006C000A00FFFEFF01440002
310
000000FFFEFF184100720063006800690074006500630074007500720061006C002000440065006D006F006C006900740069006F006E00000000000000FFFEFF01450002000000FFFEFF164100720063006800690074006500630074007500720061006C00200045006C0065006D0065006E0074007300000000000000FFFE
310
FF01460002000000FFFEFF164100720063006800690074006500630074007500720061006C002000460069006E0069007300680065007300000000000000FFFEFF01470002000000FFFEFF164100720063006800690074006500630074007500720061006C00200047007200610070006800690063007300000000000000FF
310
FEFF01490002000000FFFEFF164100720063006800690074006500630074007500720061006C00200049006E0074006500720069006F007200000000000000FFFEFF014A0002000000FFFEFF1C4100720063006800690074006500630074007500720061006C00200028005500730065007200200044006500660069006E00
310
650064002900000000000000FFFEFF014B0002000000FFFEFF1C4100720063006800690074006500630074007500720061006C00200028005500730065007200200044006500660069006E00650064002900000000000000FFFEFF01500002000000FFFEFF144100720063006800690074006500630074007500720061006C
310
00200050006100760069006E006700000000000000FFFEFF01530002000000FFFEFF124100720063006800690074006500630074007500720061006C0020005300690074006500000000000000FFFEFF01540002000000FFFEFF1C4100720063006800690074006500630074007500720061006C0020005400720061006E00
310
730070006F00720074006100740069006F006E0000000000000001000000FFFEFF01520002000000FFFEFF085200650073006F0075007200630065000700FFFEFF01450002000000FFFEFF135200650073006F007500720063006500200045006C0065006300740072006900630061006C00000000000000FFFEFF014A0002
310
000000FFFEFF175200650073006F007500720063006500200028005500730065007200200044006500660069006E00650064002900000000000000FFFEFF014B0002000000FFFEFF175200650073006F007500720063006500200028005500730065007200200044006500660069006E00650064002900000000000000FFFE
310
FF014D0002000000FFFEFF135200650073006F00750072006300650020004D0065006300680061006E006900630061006C00000000000000FFFEFF01410002000000FFFEFF165200650073006F00750072006300650020004100720063006800690074006500630074007500720061006C00000000000000FFFEFF01530002
310
000000FFFEFF135200650073006F00750072006300650020005300740072007500630074007500720061006C00000000000000FFFEFF01430002000000FFFEFF0E5200650073006F007500720063006500200043006900760069006C0000000000000000000000FFFEFF01420002000000FFFEFF0C470065006F0074006500
310
630068006E006900630061006C000200FFFEFF014A0002000000FFFEFF1B470065006F0074006500630068006E006900630061006C00200028005500730065007200200044006500660069006E00650064002900000000000000FFFEFF014B0002000000FFFEFF1B470065006F0074006500630068006E006900630061006C
310
00200028005500730065007200200044006500660069006E0065006400290000000000000000000000FFFEFF01530002000000FFFEFF0A5300740072007500630074007500720061006C000600FFFEFF01440002000000FFFEFF155300740072007500630074007500720061006C002000440065006D006F006C0069007400
310
69006F006E00000000000000FFFEFF01460002000000FFFEFF125300740072007500630074007500720061006C0020004600720061006D0069006E006700000000000000FFFEFF014A0002000000FFFEFF195300740072007500630074007500720061006C00200028005500730065007200200044006500660069006E0065
310
0064002900000000000000FFFEFF014B0002000000FFFEFF195300740072007500630074007500720061006C00200028005500730065007200200044006500660069006E00650064002900000000000000FFFEFF01530002000000FFFEFF0F5300740072007500630074007500720061006C00200053006900740065000000
310
00000000FFFEFF01420002000000FFFEFF175300740072007500630074007500720061006C00200053007500620073007400720075006300740075007200650000000000000000000000FFFEFF01430002000000FFFEFF0543006900760069006C000900FFFEFF01440002000000FFFEFF1043006900760069006C00200044
310
0065006D006F006C006900740069006F006E00000000000000FFFEFF01550002000000FFFEFF0F43006900760069006C0020005500740069006C0069007400690065007300000000000000FFFEFF01470002000000FFFEFF0D43006900760069006C002000470072006100640069006E006700000000000000FFFEFF014900
310
02000000FFFEFF1243006900760069006C00200049006D00700072006F00760065006D0065006E0074007300000000000000FFFEFF014A0002000000FFFEFF1443006900760069006C00200028005500730065007200200044006500660069006E00650064002900000000000000FFFEFF014B0002000000FFFEFF14430069
310
00760069006C00200028005500730065007200200044006500660069006E00650064002900000000000000FFFEFF01500002000000FFFEFF0C43006900760069006C00200050006100760069006E006700000000000000FFFEFF01530002000000FFFEFF0A43006900760069006C0020005300690074006500000000000000
310
FFFEFF01540002000000FFFEFF1443006900760069006C0020005400720061006E00730070006F00720074006100740069006F006E0000000000000000000000FFFEFF01540002000000FFFEFF12540065006C00650063006F006D006D0075006E00690063006100740069006F006E0073000900FFFEFF01590002000000FF
310
FEFF0853006500630075007200690074007900000000000000FFFEFF01490002000000FFFEFF0849006E0074006500720063006F006D00000000000000FFFEFF014A0002000000FFFEFF21540065006C00650063006F006D006D0075006E00690063006100740069006F006E00730020002800550073006500720020004400
310
6500660069006E00650064002900000000000000FFFEFF014B0002000000FFFEFF21540065006C00650063006F006D006D0075006E00690063006100740069006F006E007300200028005500730065007200200044006500660069006E00650064002900000000000000FFFEFF014D0002000000FFFEFF0A4D006F006E0069
310
0074006F00720069006E006700000000000000FFFEFF014E0002000000FFFEFF0D440061007400610020004E006500740077006F0072006B007300000000000000FFFEFF01410002000000FFFEFF0E41007500640069006F0020002F002000560069007300750061006C00000000000000FFFEFF01540002000000FFFEFF09
310
540065006C006500700068006F006E006500000000000000FFFEFF01430002000000FFFEFF1143006C006F0063006B00200061006E0064002000500072006F006700720061006D00000000000000000000000180FFFEFF054D0061006A006F0072000300000000000000000000000000000000000000000000000000000000
310
000000FFFEFF002300FFFEFF052D0046006C006F00720002000000FFFEFF0546006C006F006F007200000000000000FFFEFF052D004500710070006D0002000000FFFEFF09450071007500690070006D0065006E007400000000000000FFFEFF052D00530069007400650002000000FFFEFF09530069007400650020007000
310
6C0061006E00000000000000FFFEFF052D0050006C0061006E0002000000FFFEFF154B0065007900200070006C0061006E002000280066006C006F006F007200200070006C0061006E002900000000000000FFFEFF052D004400650074006C0002000000FFFEFF06440065007400610069006C00000000000000FFFEFF052D
310
0054006F0070006F0002000000FFFEFF0A54006F0070006F00670072006100700068007900000000000000FFFEFF052D004300740072006C0002000000FFFEFF0E43006F006E00740072006F006C00200050006F0069006E0074007300000000000000FFFEFF052D004600750072006E0002000000FFFEFF0B460075007200
310
6E0069007300680069006E0067007300000000000000FFFEFF052D0053006C006100620002000000FFFEFF0553006C00610062007300000000000000FFFEFF052D0050006F006C00790002000000FFFEFF0850006F006C00790067006F006E007300000000000000FFFEFF052D0043006F006D006D0002000000FFFEFF1254
310
0065006C00650063006F006D006D0075006E00690063006100740069006F006E007300000000000000FFFEFF052D00570061006C006C0002000000FFFEFF05570061006C006C007300000000000000FFFEFF052D0047006C0061007A0002000000FFFEFF0747006C0061007A0069006E006700000000000000FFFEFF052D00
310
410072006500610002000000FFFEFF044100720065006100000000000000FFFEFF052D0043006F006400650002000000FFFEFF1443006F0064006500200063006F006D0070006C00690061006E0063006500200070006C0061006E00000000000000FFFEFF052D005300740072006D0002000000FFFEFF0844007200610069
310
006E00610067006500000000000000FFFEFF052D0044006F006F00720002000000FFFEFF0544006F006F0072007300000000000000FFFEFF052D0041006E006E006F0002000000FFFEFF0A41006E006E006F0074006100740069006F006E00000000000000FFFEFF052D004200650061006D0002000000FFFEFF0542006500
310
61006D007300000000000000FFFEFF052D004C0069007400650002000000FFFEFF114C00690067006800740069006E006700200066006900780074007500720065007300000000000000FFFEFF052D00480056004100430002000000FFFEFF044800560041004300000000000000FFFEFF052D004100630063007300020000
310
00FFFEFF0B410063006300650073007300200070006C0061006E00000000000000FFFEFF052D0043006F006C00730002000000FFFEFF0743006F006C0075006D006E007300000000000000FFFEFF052D0043006C006E00670002000000FFFEFF074300650069006C0069006E006700000000000000FFFEFF052D0045007600
310
6100630002000000FFFEFF0F450076006100630075006100740069006F006E00200070006C0061006E00000000000000FFFEFF052D0043006F006E00760002000000FFFEFF1143006F006E0076006500790069006E0067002000730079007300740065006D007300000000000000FFFEFF052D005300650063007400020000
310
00FFFEFF07530065006300740069006F006E00000000000000FFFEFF052D00500072006F00700002000000FFFEFF08500072006F0070006500720074007900000000000000FFFEFF052D0052006F006F00660002000000FFFEFF0452006F006F006600000000000000FFFEFF052D0045006C006500630002000000FFFEFF0A
310
45006C0065006300740072006900630061006C00000000000000FFFEFF052D00470072006900640002000000FFFEFF0A470072006900640020006C0069006E0065007300000000000000FFFEFF052D00540069006E006E0002000000FFFEFF1E54007200690061006E00670075006C00610074006500640020006900720072
310
006500670075006C006100720020006E006500740077006F0072006B00000000000000FFFEFF052D00500072006F00740002000000FFFEFF1646006900720065002000700072006F00740065006300740069006F006E002000730079007300740065006D00000000000000FFFEFF052D00460069007200650002000000FFFE
310
FF1446006900720065002000700072006F00740065006300740069006F006E00200070006C0061006E00000000000000FFFEFF052D0045006C006500760002000000FFFEFF0945006C00650076006100740069006F006E000000000000000180FFFEFF074D0069006E006F00720020003100040000000000000000F00E7704
310
00000000000000000000000000000000F00000FFFEFF006A00FFFEFF052D00410062006F00760002000000FFFEFF0E45006C0065006D0065006E00740073002000610062006F0076006500000000000000FFFEFF052D005400610062006C0002000000FFFEFF0B440061007400610020007400610062006C00650073000000
310
00000000FFFEFF052D00420064007200790002000000FFFEFF0842006F0075006E006400610072007900000000000000FFFEFF052D004500710070006D0002000000FFFEFF09450071007500690070006D0065006E007400000000000000FFFEFF052D0043006E007400720002000000FFFEFF0A430065006E007400650072
310
006C0069006E006500000000000000FFFEFF052D0057006B007300660002000000FFFEFF1E530079007300740065006D00200077006F0072006B0020007300750072006600610063006500200063006F006D0070006F006E0065006E0074007300000000000000FFFEFF052D00420072006E00670002000000FFFEFF1A4200
310
65006100720069006E0067007300200026002000640069007300740061006E006300650020006C006100620065006C007300000000000000FFFEFF052D00530077006300680002000000FFFEFF0853007700690074006300680065007300000000000000FFFEFF052D005400680069006E0002000000FFFEFF195400680069
310
006E0020007700650069006700680074002000670072006100700068006900630020006C0069006E0065007300000000000000FFFEFF052D00520061006900730002000000FFFEFF06520061006900730065006400000000000000FFFEFF052D004F00700065006E0002000000FFFEFF084F00700065006E0069006E006700
310
7300000000000000FFFEFF052D004E0070006C00740002000000FFFEFF204E006F006E002D0070006C006F007400740069006E00670020006700720061007000680069006300200069006E0066006F0072006D006100740069006F006E00000000000000FFFEFF052D00500072006F00660002000000FFFEFF08500072006F
310
00660069006C0065007300000000000000FFFEFF052D005200650066006C0002000000FFFEFF0E5200650066006C0065006300740065006400200050006C0061006E00000000000000FFFEFF052D00460069006E00650002000000FFFEFF19460069006E006500200077006500690067006800740020006700720061007000
310
68006900630020006C0069006E0065007300000000000000FFFEFF052D004100700070006C0002000000FFFEFF0A4100700070006C00690061006E00630065007300000000000000FFFEFF052D00440069006D00730002000000FFFEFF0A440069006D0065006E00730069006F006E007300000000000000FFFEFF052D0050
310
006F007700720002000000FFFEFF0550006F00770065007200000000000000FFFEFF052D0053006C006100620002000000FFFEFF0553006C00610062007300000000000000FFFEFF052D0043006F006E006E0002000000FFFEFF0B43006F006E006E0065006300740069006F006E007300000000000000FFFEFF052D005700
310
61006C006C0002000000FFFEFF05570061006C006C007300000000000000FFFEFF052D004100730073006D0002000000FFFEFF0A41007300730065006D0062006C00690065007300000000000000FFFEFF052D005600680063006C0002000000FFFEFF08560065006800690063006C0065007300000000000000FFFEFF052D
310
0043006F006D006D0002000000FFFEFF1A540065006C006500700068006F006E0065002C00200063006F006D006D0075006E00690063006100740069006F006E0073002000000000000000FFFEFF052D00460072006500650002000000FFFEFF0C46007200650065007300740061006E00640069006E006700000000000000
310
FFFEFF052D00530079006D00620002000000FFFEFF07530079006D0062006F006C007300000000000000FFFEFF052D00520064006D00650002000000FFFEFF1B52006500610064002D006D00650020006C006100790065007200200028006E006F007400200070006C006F0074007400650064002900000000000000FFFEFF
310
052D0053006C006300650002000000FFFEFF0653006C006900630065007300000000000000FFFEFF052D00460061007300630002000000FFFEFF074600610073006300690061007300000000000000FFFEFF052D00460069006C00650002000000FFFEFF0D460069006C006500200063006100620069006E00650074007300
310
000000000000FFFEFF052D004D00610073006B0002000000FFFEFF1241004400540020004D00610073006B0069006E00670020004F0062006A00650063007400000000000000FFFEFF052D004A0061006D00620002000000FFFEFF1544006F006F007200200061006E0064002000770069006E0064006F00770020006A0061
310
006D0062007300000000000000FFFEFF052D005300690067006E0002000000FFFEFF055300690067006E007300000000000000FFFEFF052D0046006E007300680002000000FFFEFF08460069006E0069007300680065007300000000000000FFFEFF052D00530063006800640002000000FFFEFF0953006300680065006400
310
75006C0065007300000000000000FFFEFF052D00500072006800740002000000FFFEFF0E5000610072007400690061006C002000680065006900670068007400000000000000FFFEFF052D00470072007000730002000000FFFEFF06470072006F00750070007300000000000000FFFEFF052D00540068006C006400020000
310
00FFFEFF0A5400680072006500730068006F006C0064007300000000000000FFFEFF052D005300630072006E0002000000FFFEFF14530063007200650065006E006500640020004200610063006B00670072006F0075006E0064007300000000000000FFFEFF052D0043006F006D00700002000000FFFEFF1349006E007400
310
650072006E0061006C00200063006F006D0070006F006E0065006E0074007300000000000000FFFEFF052D005400690074006C0002000000FFFEFF18440072006100770069006E00670020006F0072002000640065007400610069006C0020007400690074006C0065007300000000000000FFFEFF052D0054006500780074
310
0002000000FFFEFF045400650078007400000000000000FFFEFF052D004D00610072006B0002000000FFFEFF1D4D00610072006B006500720073002C00200062007200650061006B0020006D00610072006B0073002C0020006C00650061006400650072007300000000000000FFFEFF052D00460075006C006C0002000000
310
FFFEFF0B460075006C006C002D00680065006900670068007400000000000000FFFEFF052D00450076007400720002000000FFFEFF1B45006C0065007600610074006F00720020006300610072007300200061006E0064002000650071007500690070006D0065006E007400000000000000FFFEFF052D0053007000630065
310
0002000000FFFEFF0553007000610063006500000000000000FFFEFF052D00530075007300700002000000FFFEFF12530075007300700065006E00640065006400200065006C0065006D0065006E0074007300000000000000FFFEFF052D00540065006500730002000000FFFEFF094D00610069006E002000740065006500
310
7300000000000000FFFEFF052D00460069007800740002000000FFFEFF1170006C0075006D00620069006E006700200066006900780074007500720065007300000000000000FFFEFF052D00520065006600720002000000FFFEFF195200650066006500720065006E00630065002C002000650078007400650072006E0061
310
006C002000660069006C0065007300000000000000FFFEFF052D004C00610062006C0002000000FFFEFF064C006100620065006C007300000000000000FFFEFF052D004C0069007400650002000000FFFEFF084C00690067006800740069006E006700000000000000FFFEFF052D00480065007600790002000000FFFEFF1A
310
4800650061007600790020007700650069006700680074002000670072006100700068006900630020006C0069006E0065007300000000000000FFFEFF052D00480065006100640002000000FFFEFF1744006F006F007200200061006E0064002000770069006E0064006F0077002000680065006100640065007200730000
310
0000000000FFFEFF052D004C00650067006E0002000000FFFEFF144C006500670065006E00640073002C002000530079006D0062006F006C0020006B00650079007300000000000000FFFEFF052D004B00650079006E0002000000FFFEFF084B00650079006E006F00740065007300000000000000FFFEFF052D0046006900
310
7800640002000000FFFEFF0F460069007800650064002000650071007500690070006D0065006E007400000000000000FFFEFF052D004C00650076006C0002000000FFFEFF274C006500760065006C0020006300680061006E006700650073002C002000720061006D00700073002C00200070006900740073002C00200064
310
0065007000720065007300730069006F006E007300000000000000FFFEFF052D004D00650064006D0002000000FFFEFF1B4D0065006400690075006D0020007700650069006700680074002000670072006100700068006900630020006C0069006E0065007300000000000000FFFEFF052D0042006C006F00770002000000
310
FFFEFF0E45006C0065006D0065006E00740073002000620065006C006F007700000000000000FFFEFF052D00410063006300730002000000FFFEFF06410063006300650073007300000000000000FFFEFF052D004F0063006300700002000000FFFEFF1A4F00630063007500700061006E00740020006F007200200065006D
310
0070006C006F0079006500650020006E0061006D0065007300000000000000FFFEFF052D00430061007300650002000000FFFEFF08430061007300650077006F0072006B00000000000000FFFEFF052D00520065007600730002000000FFFEFF095200650076006900730069006F006E007300000000000000FFFEFF052D00
310
420072006300650002000000FFFEFF06420072006100630065007300000000000000FFFEFF052D00480069006400650002000000FFFEFF0E480069006400640065006E0020006F0062006A006500630074007300000000000000FFFEFF052D0043006C006E00670002000000FFFEFF074300650069006C0069006E00670000
310
0000000000FFFEFF052D005500740069006C0002000000FFFEFF095500740069006C0069007400690065007300000000000000FFFEFF052D00500061007400740002000000FFFEFF19540065007800740075007200650020006F00720020006800610074006300680020007000610074007400650072006E00730000000000
310
0000FFFEFF052D00430061007600690002000000FFFEFF06430061007600690074007900000000000000FFFEFF052D0050006C006E00740002000000FFFEFF0650006C0061006E0074007300000000000000FFFEFF052D00530074007200730002000000FFFEFF215300740061006900720020007400720065006100640073
310
002C00200065007300630061006C00610074006F00720073002C0020006C00610064006400650072007300000000000000FFFEFF052D00520065007600630002000000FFFEFF0F5200650076006900730069006F006E00200063006C006F00750064007300000000000000FFFEFF052D004D006F007600650002000000FFFE
310
FF124D006F0076006500610062006C0065002000650071007500690070006D0065006E007400000000000000FFFEFF052D005000650070006C0002000000FFFEFF06500065006F0070006C006500000000000000FFFEFF052D00440065006D006F0002000000FFFEFF0A440065006D006F006C006900740069006F006E0000
310
0000000000FFFEFF052D00430075007200740002000000FFFEFF0C4300750072007400610069006E002000570061006C006C00000000000000FFFEFF052D005700640077006B0002000000FFFEFF164100720063006800690074006500630074007500720061006C00200077006F006F00640077006F0072006B0000000000
310
0000FFFEFF052D004E006F007400650002000000FFFEFF054E006F00740065007300000000000000FFFEFF052D004F0076006800640002000000FFFEFF084F007600650072006800650061006400000000000000FFFEFF052D00530075006200740002000000FFFEFF14530075006200740072006100630074006900760065
310
00200065006C0065006D0065006E0074007300000000000000FFFEFF052D00530044004600460002000000FFFEFF1053007500700070006C0079002000640069006600660075007300650072007300000000000000FFFEFF052D00530074006F00720002000000FFFEFF19530079007300740065006D002000730074006F00
310
7200610067006500200063006F006D0070006F006E0065006E0074007300000000000000FFFEFF052D004900640065006E0002000000FFFEFF134900640065006E00740069006600690063006100740069006F006E0020005400610067007300000000000000FFFEFF052D004800720061006C0002000000FFFEFF16480061
310
006E0064007200610069006C0073002C0020006700750061007200640020007200610069006C007300000000000000FFFEFF052D00570069006400650002000000FFFEFF19570069006400650020007700650069006700680074002000670072006100700068006900630020006C0069006E0065007300000000000000FFFE
310
FF052D004D0061007300730002000000FFFEFF104D0061007300730069006E006700200045006C0065006D0065006E0074007300000000000000FFFEFF052D004C0069006E00650002000000FFFEFF0D44006500660069006E0069006E00670020004C0069006E006500000000000000FFFEFF052D00560069006500770002
310
000000FFFEFF13560069006500770070006F0072007400200044006500660069006E006900740069006F006E00000000000000FFFEFF052D0050006B006E00670002000000FFFEFF075000610072006B0069006E006700000000000000FFFEFF052D00520044004600460002000000FFFEFF14520065007400750072006E00
310
20006100690072002000640069006600660075007300650072007300000000000000FFFEFF052D00530065006100740002000000FFFEFF07530065006100740069006E006700000000000000FFFEFF052D0050006E006C00730002000000FFFEFF0D530079007300740065006D002000700061006E0065006C007300000000
310
000000FFFEFF052D004D0061007400630002000000FFFEFF0B4D00610074006300680020006C0069006E0065007300000000000000FFFEFF052D00410064007400760002000000FFFEFF1141006400640069007400690076006500200065006C0065006D0065006E0074007300000000000000FFFEFF052D00430068006100
310
730002000000FFFEFF0543006800610073006500000000000000FFFEFF052D005300700063006C0002000000FFFEFF0B5300700065006300690061006C007400690065007300000000000000FFFEFF052D00470072006900640002000000FFFEFF044700720069006400000000000000FFFEFF052D004E00690063006E0002
310
000000FFFEFF0F4E006F007400200069006E00200063006F006E0074007200610063007400000000000000FFFEFF052D004D0063007500740002000000FFFEFF164D00610069006E00200063007500740020006C0069006E006500200065006C0065006D0065006E0074007300000000000000FFFEFF052D00460069007200
310
650002000000FFFEFF0A46006900720065002000770061006C006C007300000000000000FFFEFF052D00530069006C006C0002000000FFFEFF0C570069006E0064006F0077002000730069006C006C007300000000000000FFFEFF052D005400700074006E0002000000FFFEFF1154006F0069006C00650074002000700061
310
00720074006900740069006F006E007300000000000000FFFEFF052D00520069007300720002000000FFFEFF0C530074006100690072002000720069007300650072007300000000000000FFFEFF052D004F0074006C006E0002000000FFFEFF074F00750074006C0069006E006500000000000000FFFEFF052D0054007400
310
6C00620002000000FFFEFF1642006F007200640065007200200061006E00640020007400690074006C006500200062006C006F0063006B000000000000000180FFFEFF074D0069006E006F0072002000320005000000004164642062656C6F77207468652073656C6563746564206974656DFFFEFF001600FFFEFF052D0041
310
0062006F00760002000000FFFEFF0E45006C0065006D0065006E00740073002000610062006F0076006500000000000000FFFEFF052D00420064007200790002000000FFFEFF0D4500640067006500200062006F0075006E006400610072007900000000000000FFFEFF052D005400680069006E0002000000FFFEFF0E4D00
310
69006E006F00720020006C0069006E00650077006F0072006B00000000000000FFFEFF052D004E0070006C00740002000000FFFEFF154E006F006E002D0070006C006F007400740069006E006700200065006C0065006D0065006E0074007300000000000000FFFEFF052D005200650066006C0002000000FFFEFF0F520065
310
0066006C0065006300740065006400200050006C0061006E007300000000000000FFFEFF052D00440069006D00730002000000FFFEFF0A440069006D0065006E00730069006F006E007300000000000000FFFEFF052D005300630061006C0002000000FFFEFF10470072006100700068006900630061006C00200053006300
310
61006C0065007300000000000000FFFEFF052D0053006C006300650002000000FFFEFF0653006C006900630065007300000000000000FFFEFF052D0047006C0061007A0002000000FFFEFF0747006C0061007A0069006E006700000000000000FFFEFF052D00460061007300630002000000FFFEFF06460061007300630069
310
006100000000000000FFFEFF052D00470072007000730002000000FFFEFF06470072006F00750070007300000000000000FFFEFF052D005400690074006C0002000000FFFEFF065400690074006C0065007300000000000000FFFEFF052D00530066006900740002000000FFFEFF0653006F00660066006900740000000000
310
0000FFFEFF052D00500061007400740002000000FFFEFF0E4800610074006300680020007000610074007400650072006E007300000000000000FFFEFF052D00480069006400650002000000FFFEFF0F480069006400640065006E00200065006C0065006D0065006E0074007300000000000000FFFEFF052D004E006F0074
310
00650002000000FFFEFF16470065006E006500720061006C0020005400650078007400200061006E00640020004E006F00740065007300000000000000FFFEFF052D0055006E006900740002000000FFFEFF0455006E0069007400000000000000FFFEFF052D004900640065006E0002000000FFFEFF0A4900640065006E00
310
740069006600690065007200000000000000FFFEFF052D004C0069006E00650002000000FFFEFF10470065006E006500720061006C0020006C0069006E00650077006F0072006B00000000000000FFFEFF052D00530069006C006C0002000000FFFEFF05530069006C006C007300000000000000FFFEFF052D005200690073
310
00720002000000FFFEFF06520069007300650072007300000000000000FFFEFF052D004F0074006C006E0002000000FFFEFF074F00750074006C0069006E0065000000000000000180FFFEFF06530074006100740075007300060000000000000000A434770470040000B10000005073770400000000050000FFFEFF000F00
310
FFFEFF022D00310002000000FFFEFF075000680061007300650020003100000000000000FFFEFF022D00320002000000FFFEFF075000680061007300650020003200000000000000FFFEFF022D00540002000000FFFEFF0E540065006D0070006F007200610072007900200077006F0072006B00000000000000FFFEFF022D
310
00330002000000FFFEFF075000680061007300650020003300000000000000FFFEFF022D00440002000000FFFEFF144500780069007300740069006E006700200074006F002000640065006D006F006C00690073006800000000000000FFFEFF022D00340002000000FFFEFF07500068006100730065002000340000000000
310
0000FFFEFF022D00450002000000FFFEFF124500780069007300740069006E006700200074006F002000720065006D00610069006E00000000000000FFFEFF022D00350002000000FFFEFF075000680061007300650020003500000000000000FFFEFF022D00460002000000FFFEFF0B460075007400750072006500200077
310
006F0072006B00000000000000FFFEFF022D00360002000000FFFEFF075000680061007300650020003600000000000000FFFEFF022D00370002000000FFFEFF075000680061007300650020003700000000000000FFFEFF022D00380002000000FFFEFF075000680061007300650020003800000000000000FFFEFF022D00
310
390002000000FFFEFF075000680061007300650020003900000000000000FFFEFF022D004D0002000000FFFEFF114900740065006D007300200074006F0020006200650020006D006F00760065006400000000000000FFFEFF022D004E0002000000FFFEFF084E0065007700200077006F0072006B000000000000000600FF
310
FF04001A004163416563556B4C61796572436F6D706F6E656E744669656C64FFFEFF174400690073006300690070006C0069006E0065002000440065007300690067006E00610074006F0072002000310001000000FFFEFF0440002C0040004000000000000100000000FFFEFF014100000000000780FFFEFF174400690073
310
006300690070006C0069006E0065002000440065007300690067006E00610074006F0072002000320001000000FFFEFF0440002C0040004000010000000100000000FFFEFF014400000000000780FFFEFF054D0061006A006F00720005000000FFFEFF052D00400040004000400000000000010000002DFFFEFF052D005700
310
61006C006C00000000000780FFFEFF064D0069006E006F007200310005000000FFFEFF022D002A0001000000010000002DFFFEFF052D004900640065006E00000000000780FFFEFF064D0069006E006F007200320005000000FFFEFF022D002A0001000000010000002DFFFEFF052D005400650078007400000000000780FF
310
FEFF0653007400610074007500730002000000FFFEFF022D002A0001000000010000002DFFFEFF022D004E0000000000050000010203040500FFFEFF00FFFEFF0320002D002000FFFEFF022C002000FFFEFF012000FFFEFF0320002D002000FFFEFF00
  0
XRECORD
  5
FA85
102
{ACAD_REACTORS
330
FA84
102
}
330
FA84
100
AcDbXrecord
280
     1
102
SHADEPLOT
 70
     0
102
SHADEPLOTRESLEVEL
 70
     2
102
SHADEPLOTCUSTOMDPI
 70
   300
  0
XRECORD
  5
FA83
102
{ACAD_REACTORS
330
FA82
102
}
330
FA82
100
AcDbXrecord
280
     1
102
SHADEPLOT
 70
     1
102
SHADEPLOTRESLEVEL
 70
     2
102
SHADEPLOTCUSTOMDPI
 70
   300
  0
XRECORD
  5
FA8B
102
{ACAD_REACTORS
330
FA8A
102
}
330
FA8A
100
AcDbXrecord
280
     1
102
MATERIAL
148
0.0
149
0.0
149
0.0
 93
        0
 94
       63
282
     0
 72
     1
 77
     1
171
     1
175
     1
179
     1
273
     0
  0
XRECORD
  5
FA89
102
{ACAD_REACTORS
330
FA88
102
}
330
FA88
100
AcDbXrecord
280
     1
102
MATERIAL
148
0.0
149
0.0
149
0.0
 93
        0
 94
       63
282
     0
 72
     1
 77
     1
171
     1
175
     1
179
     1
273
     0
  0
XRECORD
  5
FA8D
102
{ACAD_REACTORS
330
FA8C
102
}
330
FA8C
100
AcDbXrecord
280
     1
102
MATERIAL
148
0.0
149
0.0
149
0.0
 93
        0
 94
       63
282
     0
 72
     1
 77
     1
171
     1
175
     1
179
     1
273
     0
  0
XRECORD
  5
FA87
102
{ACAD_REACTORS
330
FA86
102
}
330
FA86
100
AcDbXrecord
280
     1
102
ACAD_ROUNDTRIP_PRE2007_TABLESTYLE
 90
        4
 91
        0
  1

 92
        4
 93
        0
  2

 94
        4
 95
        0
  3

  0
ENDSEC
  0
EOF
