  0
SECTION
  2
HEADER
  9
$ACADVER
  1
AC1015
  9
$ACADMAINTVER
 70
    18
  9
$DWGCODEPAGE
  3
ANSI_1250
  9
$INSBASE
 10
215187.233673673
 20
127657.5168525552
 30
0.0
  9
$EXTMIN
 10
1.000000000000000E+20
 20
1.000000000000000E+20
 30
1.000000000000000E+20
  9
$EXTMAX
 10
0.0
 20
0.0
 30
0.0
  9
$LIMMIN
 10
0.0
 20
0.0
  9
$LIMMAX
 10
420.0
 20
297.0
  9
$ORTHOMODE
 70
     1
  9
$REGENMODE
 70
     1
  9
$FILLMODE
 70
     1
  9
$QTEXTMODE
 70
     0
  9
$MIRRTEXT
 70
     0
  9
$LTSCALE
 40
75.0
  9
$ATTMODE
 70
     1
  9
$TEXTSIZE
 40
20.0
  9
$TRACEWID
 40
1.0
  9
$TEXTSTYLE
  7
ROMANS
  9
$CLAYER
  8
0
  9
$CELTYPE
  6
ByLayer
  9
$CECOLOR
 62
   256
  9
$CELTSCALE
 40
1.0
  9
$DISPSILH
 70
     0
  9
$DIMSCALE
 40
10.0
  9
$DIMASZ
 40
30.0
  9
$DIMEXO
 40
43.0
  9
$DIMDLI
 40
0.0
  9
$DIMRND
 40
0.5
  9
$DIMDLE
 40
12.0
  9
$DIMEXE
 40
13.0
  9
$DIMTP
 40
0.0
  9
$DIMTM
 40
0.0
  9
$DIMTXT
 40
80.0
  9
$DIMCEN
 40
0.0
  9
$DIMTSZ
 40
0.0
  9
$DIMTOL
 70
     0
  9
$DIMLIM
 70
     0
  9
$DIMTIH
 70
     0
  9
$DIMTOH
 70
     0
  9
$DIMSE1
 70
     1
  9
$DIMSE2
 70
     1
  9
$DIMTAD
 70
     0
  9
$DIMZIN
 70
    12
  9
$DIMBLK
  1
B-DIM
  9
$DIMASO
 70
     1
  9
$DIMSHO
 70
     1
  9
$DIMPOST
  1

  9
$DIMAPOST
  1

  9
$DIMALT
 70
     0
  9
$DIMALTD
 70
     2
  9
$DIMALTF
 40
25.4
  9
$DIMLFAC
 40
10.0
  9
$DIMTOFL
 70
     1
  9
$DIMTVP
 40
1.0
  9
$DIMTIX
 70
     1
  9
$DIMSOXD
 70
     0
  9
$DIMSAH
 70
     0
  9
$DIMBLK1
  1

  9
$DIMBLK2
  1

  9
$DIMSTYLE
  2
500-RU
  9
$DIMCLRD
 70
     1
  9
$DIMCLRE
 70
     1
  9
$DIMCLRT
 70
   140
  9
$DIMTFAC
 40
1.0
  9
$DIMGAP
 40
0.0
  9
$DIMJUST
 70
     0
  9
$DIMSD1
 70
     0
  9
$DIMSD2
 70
     0
  9
$DIMTOLJ
 70
     1
  9
$DIMTZIN
 70
     0
  9
$DIMALTZ
 70
     0
  9
$DIMALTTZ
 70
     0
  9
$DIMUPT
 70
     0
  9
$DIMDEC
 70
     1
  9
$DIMTDEC
 70
     1
  9
$DIMALTU
 70
     2
  9
$DIMALTTD
 70
     2
  9
$DIMTXSTY
  7
ROMANS
  9
$DIMAUNIT
 70
     0
  9
$DIMADEC
 70
     0
  9
$DIMALTRND
 40
0.0
  9
$DIMAZIN
 70
     0
  9
$DIMDSEP
 70
    46
  9
$DIMATFIT
 70
     3
  9
$DIMFRAC
 70
     0
  9
$DIMLDRBLK
  1
B-DIM
  9
$DIMLUNIT
 70
     2
  9
$DIMLWD
 70
    -2
  9
$DIMLWE
 70
    -2
  9
$DIMTMOVE
 70
     2
  9
$LUNITS
 70
     2
  9
$LUPREC
 70
     1
  9
$SKETCHINC
 40
1.0
  9
$FILLETRAD
 40
0.0
  9
$AUNITS
 70
     0
  9
$AUPREC
 70
     0
  9
$MENU
  1
.
  9
$ELEVATION
 40
0.0
  9
$PELEVATION
 40
0.0
  9
$THICKNESS
 40
0.0
  9
$LIMCHECK
 70
     0
  9
$CHAMFERA
 40
0.0
  9
$CHAMFERB
 40
0.0
  9
$CHAMFERC
 40
20.0
  9
$CHAMFERD
 40
0.0
  9
$SKPOLY
 70
     0
  9
$TDCREATE
 40
2452027.628880787
  9
$TDUCREATE
 40
2452027.587214121
  9
$TDUPDATE
 40
2455965.469657118
  9
$TDUUPDATE
 40
2455965.427990451
  9
$TDINDWG
 40
8.9375540162
  9
$TDUSRTIMER
 40
8.9375540162
  9
$USRTIMER
 70
     1
  9
$ANGBASE
 50
0.0
  9
$ANGDIR
 70
     0
  9
$PDMODE
 70
     0
  9
$PDSIZE
 40
0.0
  9
$PLINEWID
 40
0.0
  9
$SPLFRAME
 70
     0
  9
$SPLINETYPE
 70
     6
  9
$SPLINESEGS
 70
     8
  9
$HANDSEED
  5
33E
  9
$SURFTAB1
 70
     6
  9
$SURFTAB2
 70
     6
  9
$SURFTYPE
 70
     6
  9
$SURFU
 70
     6
  9
$SURFV
 70
     6
  9
$UCSBASE
  2

  9
$UCSNAME
  2

  9
$UCSORG
 10
0.0
 20
0.0
 30
0.0
  9
$UCSXDIR
 10
1.0
 20
0.0
 30
0.0
  9
$UCSYDIR
 10
0.0
 20
1.0
 30
0.0
  9
$UCSORTHOREF
  2

  9
$UCSORTHOVIEW
 70
     0
  9
$UCSORGTOP
 10
0.0
 20
0.0
 30
0.0
  9
$UCSORGBOTTOM
 10
0.0
 20
0.0
 30
0.0
  9
$UCSORGLEFT
 10
0.0
 20
0.0
 30
0.0
  9
$UCSORGRIGHT
 10
0.0
 20
0.0
 30
0.0
  9
$UCSORGFRONT
 10
0.0
 20
0.0
 30
0.0
  9
$UCSORGBACK
 10
0.0
 20
0.0
 30
0.0
  9
$PUCSBASE
  2

  9
$PUCSNAME
  2

  9
$PUCSORG
 10
0.0
 20
0.0
 30
0.0
  9
$PUCSXDIR
 10
1.0
 20
0.0
 30
0.0
  9
$PUCSYDIR
 10
0.0
 20
1.0
 30
0.0
  9
$PUCSORTHOREF
  2

  9
$PUCSORTHOVIEW
 70
     0
  9
$PUCSORGTOP
 10
0.0
 20
0.0
 30
0.0
  9
$PUCSORGBOTTOM
 10
0.0
 20
0.0
 30
0.0
  9
$PUCSORGLEFT
 10
0.0
 20
0.0
 30
0.0
  9
$PUCSORGRIGHT
 10
0.0
 20
0.0
 30
0.0
  9
$PUCSORGFRONT
 10
0.0
 20
0.0
 30
0.0
  9
$PUCSORGBACK
 10
0.0
 20
0.0
 30
0.0
  9
$USERI1
 70
     0
  9
$USERI2
 70
     0
  9
$USERI3
 70
     0
  9
$USERI4
 70
     0
  9
$USERI5
 70
     0
  9
$USERR1
 40
0.0
  9
$USERR2
 40
0.0
  9
$USERR3
 40
0.0
  9
$USERR4
 40
0.0
  9
$USERR5
 40
0.0
  9
$WORLDVIEW
 70
     1
  9
$SHADEDGE
 70
     3
  9
$SHADEDIF
 70
    70
  9
$TILEMODE
 70
     1
  9
$MAXACTVP
 70
    64
  9
$PINSBASE
 10
0.0
 20
0.0
 30
0.0
  9
$PLIMCHECK
 70
     0
  9
$PEXTMIN
 10
1.049999952316284
 20
0.7999999523162842
 30
0.0
  9
$PEXTMAX
 10
9.449999570846559
 20
7.199999570846558
 30
0.0
  9
$PLIMMIN
 10
-0.2500002402958907
 20
-0.2499999962453767
  9
$PLIMMAX
 10
10.74999951940822
 20
8.249999763458733
  9
$UNITMODE
 70
     0
  9
$VISRETAIN
 70
     1
  9
$PLINEGEN
 70
     0
  9
$PSLTSCALE
 70
     1
  9
$TREEDEPTH
 70
  3020
  9
$CMLSTYLE
  2
Standard
  9
$CMLJUST
 70
     0
  9
$CMLSCALE
 40
20.0
  9
$PROXYGRAPHICS
 70
     1
  9
$MEASUREMENT
 70
     0
  9
$CELWEIGHT
370
    -1
  9
$ENDCAPS
280
     0
  9
$JOINSTYLE
280
     0
  9
$LWDISPLAY
290
     0
  9
$INSUNITS
 70
     5
  9
$HYPERLINKBASE
  1

  9
$STYLESHEET
  1

  9
$XEDIT
290
     1
  9
$CEPSNTYPE
380
     0
  9
$PSTYLEMODE
290
     1
  9
$FINGERPRINTGUID
  2
{C71D626D-9777-4A36-B02A-9A649448A9EC}
  9
$VERSIONGUID
  2
{8BD9A2AA-BCAE-4BD8-B7C7-2497886440FB}
  9
$EXTNAMES
290
     1
  9
$PSVPSCALE
 40
0.0
  9
$OLESTARTUP
290
     0
  0
ENDSEC
  0
SECTION
  2
CLASSES
  0
CLASS
  1
ACDBDICTIONARYWDFLT
  2
AcDbDictionaryWithDefault
  3
ObjectDBX Classes
 90
        0
280
     0
281
     0
  0
CLASS
  1
ACDBPLACEHOLDER
  2
AcDbPlaceHolder
  3
ObjectDBX Classes
 90
        0
280
     0
281
     0
  0
CLASS
  1
LAYOUT
  2
AcDbLayout
  3
ObjectDBX Classes
 90
        0
280
     0
281
     0
  0
CLASS
  1
DICTIONARYVAR
  2
AcDbDictionaryVar
  3
ObjectDBX Classes
 90
        0
280
     0
281
     0
  0
CLASS
  1
SORTENTSTABLE
  2
AcDbSortentsTable
  3
ObjectDBX Classes
 90
        0
280
     0
281
     0
  0
CLASS
  1
AEC_VARS_DWG_SETUP
  2
AecDbVarsDwgSetup
  3
AecBase50|Product Desc: Autodesk Architectural Desktop 2007 |Company: Autodesk,Inc. |WEB Address: www.autodesk.com
 90
    32897
280
     0
281
     0
  0
CLASS
  1
AEC_DISP_REP_CONFIG
  2
AecDbDispRepConfig
  3
AecBase50|Product Desc: Autodesk Architectural Desktop 2007 |Company: Autodesk,Inc. |WEB Address: www.autodesk.com
 90
    32897
280
     0
281
     0
  0
CLASS
  1
AEC_DISP_REP_SET
  2
AecDbDispRepSet
  3
AecBase50|Product Desc: Autodesk Architectural Desktop 2007 |Company: Autodesk,Inc. |WEB Address: www.autodesk.com
 90
    32897
280
     0
281
     0
  0
CLASS
  1
AEC_DISP_REP_2D_SECTION
  2
AecDbDispRep2dSection
  3
AecBase50|Product Desc: Autodesk Architectural Desktop 2007 |Company: Autodesk,Inc. |WEB Address: www.autodesk.com
 90
    32897
280
     0
281
     0
  0
CLASS
  1
AEC_DISP_REP_ANCHOR_BUB_TO_GRID
  2
AecDbDispRepAnchorBubToGrid
  3
AecStructureBase50|Product Desc: Autodesk Architectural Desktop 2007 |Company: Autodesk,Inc. |WEB Address: www.autodesk.com
 90
    32897
280
     0
281
     0
  0
CLASS
  1
AEC_DISP_REP_ANCHOR_BUB_TO_GRID_MODEL
  2
AecDbDispRepAnchorBubToGridMdl
  3
AecStructureBase50|Product Desc: Autodesk Architectural Desktop 2007 |Company: Autodesk,Inc. |WEB Address: www.autodesk.com
 90
    32897
280
     0
281
     0
  0
CLASS
  1
AEC_DISP_REP_ANCHOR_ENT_TO_NODE
  2
AecDbDispRepAnchorEntToNode
  3
AecBaseEx50|Product Desc: Autodesk Architectural Desktop 2007 |Company: Autodesk,Inc. |WEB Address: www.autodesk.com
 90
    32897
280
     0
281
     0
  0
CLASS
  1
AEC_DISP_REP_ANCHOR_TAG_TO_ENT
  2
AecDbDispRepAnchorTagToEnt
  3
AecScheduleData50|Product Desc: Autodesk Architectural Desktop 2007 |Company: Autodesk,Inc. |WEB Address: www.autodesk.com
 90
    32897
280
     0
281
     0
  0
CLASS
  1
AEC_DISP_REP_AREA
  2
AecDbDispRepArea
  3
AecAreaCalculationBase50|Product Desc: Autodesk Architectural Desktop 2007 |Company: Autodesk,Inc. |WEB Address: www.autodesk.com
 90
    32897
280
     0
281
     0
  0
CLASS
  1
AEC_DISP_REP_AREA_DECOMPOSED
  2
AecDbDispRepAreaDecomposed
  3
AecAreaCalculationBase50|Product Desc: Autodesk Architectural Desktop 2007 |Company: Autodesk,Inc. |WEB Address: www.autodesk.com
 90
    32897
280
     0
281
     0
  0
CLASS
  1
AEC_DISP_REP_AREAGROUP
  2
AecDbDispRepAreaGroup
  3
AecAreaCalculationBase50|Product Desc: Autodesk Architectural Desktop 2007 |Company: Autodesk,Inc. |WEB Address: www.autodesk.com
 90
    32897
280
     0
281
     0
  0
CLASS
  1
AEC_DISP_REP_BDG_ELEVLINE_MODEL
  2
AecDbDispRepBdgElevLineModel
  3
AecArchBase50|Product Desc: Autodesk Architectural Desktop 2007 |Company: Autodesk,Inc. |WEB Address: www.autodesk.com
 90
    32897
280
     0
281
     0
  0
CLASS
  1
AEC_DISP_REP_BDG_SECTIONLINE_PLAN
  2
AecDbDispRepBdgElevLinePlan
  3
AecArchBase50|Product Desc: Autodesk Architectural Desktop 2007 |Company: Autodesk,Inc. |WEB Address: www.autodesk.com
 90
    32897
280
     0
281
     0
  0
CLASS
  1
AEC_DISP_REP_BDG_SECTIONLINE_MODEL
  2
AecDbDispRepBdgSectionLineModel
  3
AecArchBase50|Product Desc: Autodesk Architectural Desktop 2007 |Company: Autodesk,Inc. |WEB Address: www.autodesk.com
 90
    32897
280
     0
281
     0
  0
CLASS
  1
AEC_DISP_REP_BDG_SECTIONLINE_PLAN
  2
AecDbDispRepBdgSectionLinePlan
  3
AecArchBase50|Product Desc: Autodesk Architectural Desktop 2007 |Company: Autodesk,Inc. |WEB Address: www.autodesk.com
 90
    32897
280
     0
281
     0
  0
CLASS
  1
AEC_DISP_REP_BDG_SECTION_SUBDIV
  2
AecDbDispRepBdgSectionSubDiv
  3
AecArchBase50|Product Desc: Autodesk Architectural Desktop 2007 |Company: Autodesk,Inc. |WEB Address: www.autodesk.com
 90
    32897
280
     0
281
     0
  0
CLASS
  1
AEC_DISP_REP_CAMERA
  2
AecDbDispRepCamera
  3
AecBase50|Product Desc: Autodesk Architectural Desktop 2007 |Company: Autodesk,Inc. |WEB Address: www.autodesk.com
 90
    32897
280
     0
281
     0
  0
CLASS
  1
AEC_DISP_REP_CEILING_GRID
  2
AecDbDispRepCeilingGrid
  3
AecArchBase50|Product Desc: Autodesk Architectural Desktop 2007 |Company: Autodesk,Inc. |WEB Address: www.autodesk.com
 90
    33661
280
     0
281
     0
  0
CLASS
  1
AEC_DISP_REP_CEILING_GRID_MODEL
  2
AecDbDispRepCeilingGridModel
  3
AecArchBase50|Product Desc: Autodesk Architectural Desktop 2007 |Company: Autodesk,Inc. |WEB Address: www.autodesk.com
 90
    32897
280
     0
281
     0
  0
CLASS
  1
AEC_DISP_REP_CEILING_GRID_RCP
  2
AecDbDispRepCeilingGridRcp
  3
AecArchBase50|Product Desc: Autodesk Architectural Desktop 2007 |Company: Autodesk,Inc. |WEB Address: www.autodesk.com
 90
    32897
280
     0
281
     0
  0
CLASS
  1
AEC_DISP_REP_CLIP_VOLUME_MODEL
  2
AecDbDispRepClipVolModel
  3
AecBase50|Product Desc: Autodesk Architectural Desktop 2007 |Company: Autodesk,Inc. |WEB Address: www.autodesk.com
 90
    32897
280
     0
281
     0
  0
CLASS
  1
AEC_DISP_REP_CLIP_VOLUME_PLAN
  2
AecDbDispRepClipVolPlan
  3
AecBase50|Product Desc: Autodesk Architectural Desktop 2007 |Company: Autodesk,Inc. |WEB Address: www.autodesk.com
 90
    32897
280
     0
281
     0
  0
CLASS
  1
AEC_DISP_REP_CLIP_VOLUME_RESULT_SUBDIV
  2
AecDbDispRepClipVolResSubDiv
  3
AecBase50|Product Desc: Autodesk Architectural Desktop 2007 |Company: Autodesk,Inc. |WEB Address: www.autodesk.com
 90
    32897
280
     0
281
     0
  0
CLASS
  1
AEC_DISP_REP_CLIP_VOLUME_RESULT
  2
AecDbDispRepClipVolResult
  3
AecBase50|Product Desc: Autodesk Architectural Desktop 2007 |Company: Autodesk,Inc. |WEB Address: www.autodesk.com
 90
    32897
280
     0
281
     0
  0
CLASS
  1
AEC_DISP_REP_COLUMN_GRID
  2
AecDbDispRepColumnGrid
  3
AecStructureBase50|Product Desc: Autodesk Architectural Desktop 2007 |Company: Autodesk,Inc. |WEB Address: www.autodesk.com
 90
    32897
280
     0
281
     0
  0
CLASS
  1
AEC_DISP_REP_COLUMN_GRID_MODEL
  2
AecDbDispRepColumnGridModel
  3
AecStructureBase50|Product Desc: Autodesk Architectural Desktop 2007 |Company: Autodesk,Inc. |WEB Address: www.autodesk.com
 90
    32897
280
     0
281
     0
  0
CLASS
  1
AEC_DISP_REP_CURTAIN_WALL_LAYOUT_MODEL
  2
AecDbDispRepCurtainWallLayoutModel
  3
AecArchBase50|Product Desc: Autodesk Architectural Desktop 2007 |Company: Autodesk,Inc. |WEB Address: www.autodesk.com
 90
    32897
280
     0
281
     0
  0
CLASS
  1
AEC_DISP_REP_CURTAIN_WALL_LAYOUT_PLAN
  2
AecDbDispRepCurtainWallLayoutPlan
  3
AecArchBase50|Product Desc: Autodesk Architectural Desktop 2007 |Company: Autodesk,Inc. |WEB Address: www.autodesk.com
 90
    32897
280
     0
281
     0
  0
CLASS
  1
AEC_DISP_REP_CURTAIN_WALL_UNIT_MODEL
  2
AecDbDispRepCurtainWallUnitModel
  3
AecArchBase50|Product Desc: Autodesk Architectural Desktop 2007 |Company: Autodesk,Inc. |WEB Address: www.autodesk.com
 90
    32897
280
     0
281
     0
  0
CLASS
  1
AEC_DISP_REP_CURTAIN_WALL_UNIT_PLAN
  2
AecDbDispRepCurtainWallUnitPlan
  3
AecArchBase50|Product Desc: Autodesk Architectural Desktop 2007 |Company: Autodesk,Inc. |WEB Address: www.autodesk.com
 90
    32897
280
     0
281
     0
  0
CLASS
  1
AEC_DB_DISP_REP_DIM_GROUP_PLAN
  2
AecDbDispRepDimGroupPlan
  3
AecArchDACHBase50|Product Desc: Autodesk Architectural Desktop 2007 |Company: Autodesk,Inc. |WEB Address: www.autodesk.com
 90
    32897
280
     0
281
     0
  0
CLASS
  1
AEC_DISP_REP_DOOR_MODEL
  2
AecDbDispRepDoorModel
  3
AecArchBase50|Product Desc: Autodesk Architectural Desktop 2007 |Company: Autodesk,Inc. |WEB Address: www.autodesk.com
 90
    32897
280
     0
281
     0
  0
CLASS
  1
AEC_DISP_REP_DOOR_NOMINAL
  2
AecDbDispRepDoorNominal
  3
AecArchBase50|Product Desc: Autodesk Architectural Desktop 2007 |Company: Autodesk,Inc. |WEB Address: www.autodesk.com
 90
    32897
280
     0
281
     0
  0
CLASS
  1
AEC_DISP_REP_DOOR_PLAN
  2
AecDbDispRepDoorPlan
  3
AecArchBase50|Product Desc: Autodesk Architectural Desktop 2007 |Company: Autodesk,Inc. |WEB Address: www.autodesk.com
 90
    32897
280
     0
281
     0
  0
CLASS
  1
AEC_DISP_REP_EDITINPLACEPROFILE
  2
AecDbDispRepEditInPlaceProfile
  3
AecBase50|Product Desc: Autodesk Architectural Desktop 2007 |Company: Autodesk,Inc. |WEB Address: www.autodesk.com
 90
    32897
280
     0
281
     0
  0
CLASS
  1
AEC_DISP_REP_ENT_REF
  2
AecDbDispRepEntRef
  3
AecBase50|Product Desc: Autodesk Architectural Desktop 2007 |Company: Autodesk,Inc. |WEB Address: www.autodesk.com
 90
    32897
280
     0
281
     0
  0
CLASS
  1
AEC_DISP_REP_LAYOUT_CURVE
  2
AecDbDispRepLayoutCurve
  3
AecBase50|Product Desc: Autodesk Architectural Desktop 2007 |Company: Autodesk,Inc. |WEB Address: www.autodesk.com
 90
    32897
280
     0
281
     0
  0
CLASS
  1
AEC_DISP_REP_LAYOUT_GRID2D
  2
AecDbDispRepLayoutGrid2d
  3
AecBase50|Product Desc: Autodesk Architectural Desktop 2007 |Company: Autodesk,Inc. |WEB Address: www.autodesk.com
 90
    32897
280
     0
281
     0
  0
CLASS
  1
AEC_DISP_REP_LAYOUT_GRID3D
  2
AecDbDispRepLayoutGrid3d
  3
AecBase50|Product Desc: Autodesk Architectural Desktop 2007 |Company: Autodesk,Inc. |WEB Address: www.autodesk.com
 90
    32897
280
     0
281
     0
  0
CLASS
  1
AEC_DISP_REP_MASKBLOCK_REF
  2
AecDbDispRepMaskBlockRef
  3
AecBase50|Product Desc: Autodesk Architectural Desktop 2007 |Company: Autodesk,Inc. |WEB Address: www.autodesk.com
 90
    32897
280
     0
281
     0
  0
CLASS
  1
AEC_DISP_REP_MASKBLOCK_REF_RCP
  2
AecDbDispRepMaskBlockRefRcp
  3
AecArchBase50|Product Desc: Autodesk Architectural Desktop 2007 |Company: Autodesk,Inc. |WEB Address: www.autodesk.com
 90
    32897
280
     0
281
     0
  0
CLASS
  1
AEC_DISP_REP_MASS_ELEM_MODEL
  2
AecDbDispRepMassElemModel
  3
AecBaseEx50|Product Desc: Autodesk Architectural Desktop 2007 |Company: Autodesk,Inc. |WEB Address: www.autodesk.com
 90
    32897
280
     0
281
     0
  0
CLASS
  1
AEC_DISP_REP_MASS_ELEM_SCHEM
  2
AecDbDispRepMassElemSchem
  3
AecBaseEx50|Product Desc: Autodesk Architectural Desktop 2007 |Company: Autodesk,Inc. |WEB Address: www.autodesk.com
 90
    32897
280
     0
281
     0
  0
CLASS
  1
AEC_DISP_REP_MASS_GROUP_MODEL
  2
AecDbDispRepMassGroupModel
  3
AecBaseEx50|Product Desc: Autodesk Architectural Desktop 2007 |Company: Autodesk,Inc. |WEB Address: www.autodesk.com
 90
    32897
280
     0
281
     0
  0
CLASS
  1
AEC_DISP_REP_MASS_GROUP_PLAN
  2
AecDbDispRepMassGroupPlan
  3
AecBaseEx50|Product Desc: Autodesk Architectural Desktop 2007 |Company: Autodesk,Inc. |WEB Address: www.autodesk.com
 90
    32897
280
     0
281
     0
  0
CLASS
  1
AEC_DISP_REP_MATERIAL
  2
AecDbDispRepMaterial
  3
AecBase50|Product Desc: Autodesk Architectural Desktop 2007 |Company: Autodesk,Inc. |WEB Address: www.autodesk.com
 90
    32897
280
     0
281
     0
  0
CLASS
  1
AEC_DISP_REP_MVBLOCK_REF
  2
AecDbDispRepMvBlockRef
  3
AecBase50|Product Desc: Autodesk Architectural Desktop 2007 |Company: Autodesk,Inc. |WEB Address: www.autodesk.com
 90
    32897
280
     0
281
     0
  0
CLASS
  1
AEC_DISP_REP_MVBLOCK_REF_MODEL
  2
AecDbDispRepMvBlockRefModel
  3
AecBase50|Product Desc: Autodesk Architectural Desktop 2007 |Company: Autodesk,Inc. |WEB Address: www.autodesk.com
 90
    32897
280
     0
281
     0
  0
CLASS
  1
AEC_DISP_REP_OPENING
  2
AecDbDispRepOpening
  3
AecArchBase50|Product Desc: Autodesk Architectural Desktop 2007 |Company: Autodesk,Inc. |WEB Address: www.autodesk.com
 90
    32897
280
     0
281
     0
  0
CLASS
  1
AEC_DISP_REP_OPENING_MODEL
  2
AecDbDispRepOpeningModel
  3
AecArchBase50|Product Desc: Autodesk Architectural Desktop 2007 |Company: Autodesk,Inc. |WEB Address: www.autodesk.com
 90
    32897
280
     0
281
     0
  0
CLASS
  1
AEC_DISP_REP_POLYGON_MODEL
  2
AecDbDispRepPolygonModel
  3
AecBaseEx50|Product Desc: Autodesk Architectural Desktop 2007 |Company: Autodesk,Inc. |WEB Address: www.autodesk.com
 90
    32897
280
     0
281
     0
  0
CLASS
  1
AEC_DISP_REP_RAILING_MODEL
  2
AecDbDispRepRailingModel
  3
AecArchBase50|Product Desc: Autodesk Architectural Desktop 2007 |Company: Autodesk,Inc. |WEB Address: www.autodesk.com
 90
    32897
280
     0
281
     0
  0
CLASS
  1
AEC_DISP_REP_RAILING_PLAN
  2
AecDbDispRepRailingPlan
  3
AecArchBase50|Product Desc: Autodesk Architectural Desktop 2007 |Company: Autodesk,Inc. |WEB Address: www.autodesk.com
 90
    32897
280
     0
281
     0
  0
CLASS
  1
AEC_DISP_REP_ROOF_MODEL
  2
AecDbDispRepRoofModel
  3
AecArchBase50|Product Desc: Autodesk Architectural Desktop 2007 |Company: Autodesk,Inc. |WEB Address: www.autodesk.com
 90
    32897
280
     0
281
     0
  0
CLASS
  1
AEC_DISP_REP_ROOF_PLAN
  2
AecDbDispRepRoofPlan
  3
AecArchBase50|Product Desc: Autodesk Architectural Desktop 2007 |Company: Autodesk,Inc. |WEB Address: www.autodesk.com
 90
    32897
280
     0
281
     0
  0
CLASS
  1
AEC_DISP_REP_ROOFSLAB_MODEL
  2
AecDbDispRepRoofSlabModel
  3
AecArchBase50|Product Desc: Autodesk Architectural Desktop 2007 |Company: Autodesk,Inc. |WEB Address: www.autodesk.com
 90
    32897
280
     0
281
     0
  0
CLASS
  1
AEC_DISP_REP_ROOFSLAB_PLAN
  2
AecDbDispRepRoofSlabPlan
  3
AecArchBase50|Product Desc: Autodesk Architectural Desktop 2007 |Company: Autodesk,Inc. |WEB Address: www.autodesk.com
 90
    32897
280
     0
281
     0
  0
CLASS
  1
AEC_DISP_REP_SCHEDULE_TABLE
  2
AecDbDispRepScheduleTable
  3
AecSchedule50|Product Desc: Autodesk Architectural Desktop 2007 |Company: Autodesk,Inc. |WEB Address: www.autodesk.com
 90
    32897
280
     0
281
     0
  0
CLASS
  1
AEC_DISP_REP_SLAB_MODEL
  2
AecDbDispRepSlabModel
  3
AecArchBase50|Product Desc: Autodesk Architectural Desktop 2007 |Company: Autodesk,Inc. |WEB Address: www.autodesk.com
 90
    32897
280
     0
281
     0
  0
CLASS
  1
AEC_DISP_REP_SLAB_PLAN
  2
AecDbDispRepSlabPlan
  3
AecArchBase50|Product Desc: Autodesk Architectural Desktop 2007 |Company: Autodesk,Inc. |WEB Address: www.autodesk.com
 90
    32897
280
     0
281
     0
  0
CLASS
  1
AEC_DISP_REP_SLICE
  2
AecDbDispRepSlice
  3
AecBase50|Product Desc: Autodesk Architectural Desktop 2007 |Company: Autodesk,Inc. |WEB Address: www.autodesk.com
 90
    32897
280
     0
281
     0
  0
CLASS
  1
AEC_DISP_REP_SPACE_BOUNDARY_MODEL
  2
AecDbDispRepSpaceBoundaryModel
  3
AecArchBase50|Product Desc: Autodesk Architectural Desktop 2007 |Company: Autodesk,Inc. |WEB Address: www.autodesk.com
 90
    32897
280
     0
281
     0
  0
CLASS
  1
AEC_DISP_REP_SPACE_BOUNDARY_PLAN
  2
AecDbDispRepSpaceBoundaryPlan
  3
AecArchBase50|Product Desc: Autodesk Architectural Desktop 2007 |Company: Autodesk,Inc. |WEB Address: www.autodesk.com
 90
    32897
280
     0
281
     0
  0
CLASS
  1
AEC_DISP_REP_SPACE_BOUNDARY_SCHEM
  2
AecDbDispRepSpaceBoundarySketch
  3
AecArchBase50|Product Desc: Autodesk Architectural Desktop 2007 |Company: Autodesk,Inc. |WEB Address: www.autodesk.com
 90
    32897
280
     0
281
     0
  0
CLASS
  1
AEC_DISP_REP_SPACE_MODEL
  2
AecDbDispRepSpaceModel
  3
AecArchBase50|Product Desc: Autodesk Architectural Desktop 2007 |Company: Autodesk,Inc. |WEB Address: www.autodesk.com
 90
    32897
280
     0
281
     0
  0
CLASS
  1
AEC_DISP_REP_SPACE_PLAN
  2
AecDbDispRepSpacePlan
  3
AecArchBase50|Product Desc: Autodesk Architectural Desktop 2007 |Company: Autodesk,Inc. |WEB Address: www.autodesk.com
 90
    32897
280
     0
281
     0
  0
CLASS
  1
AEC_DISP_REP_STAIR_MODEL
  2
AecDbDispRepStairModel
  3
AecArchBase50|Product Desc: Autodesk Architectural Desktop 2007 |Company: Autodesk,Inc. |WEB Address: www.autodesk.com
 90
    32897
280
     0
281
     0
  0
CLASS
  1
AEC_DISP_REP_STAIR_PLAN
  2
AecDbDispRepStairPlan
  3
AecArchBase50|Product Desc: Autodesk Architectural Desktop 2007 |Company: Autodesk,Inc. |WEB Address: www.autodesk.com
 90
    32897
280
     0
281
     0
  0
CLASS
  1
AEC_DISP_REP_WALL_GRAPH
  2
AecDbDispRepWallGraph
  3
AecArchBase50|Product Desc: Autodesk Architectural Desktop 2007 |Company: Autodesk,Inc. |WEB Address: www.autodesk.com
 90
    32897
280
     0
281
     0
  0
CLASS
  1
AEC_DISP_REP_WALL_MODEL
  2
AecDbDispRepWallModel
  3
AecArchBase50|Product Desc: Autodesk Architectural Desktop 2007 |Company: Autodesk,Inc. |WEB Address: www.autodesk.com
 90
    32897
280
     0
281
     0
  0
CLASS
  1
AEC_DISP_REP_WALL_PLAN
  2
AecDbDispRepWallPlan
  3
AecArchBase50|Product Desc: Autodesk Architectural Desktop 2007 |Company: Autodesk,Inc. |WEB Address: www.autodesk.com
 90
    32897
280
     0
281
     0
  0
CLASS
  1
AEC_DISP_REP_WALL_SCHEM
  2
AecDbDispRepWallSchem
  3
AecArchBase50|Product Desc: Autodesk Architectural Desktop 2007 |Company: Autodesk,Inc. |WEB Address: www.autodesk.com
 90
    32897
280
     0
281
     0
  0
CLASS
  1
AEC_DISP_REP_WINDOW_ASSEMBLY_MODEL
  2
AecDbDispRepWindowAssemblyModel
  3
AecArchBase50|Product Desc: Autodesk Architectural Desktop 2007 |Company: Autodesk,Inc. |WEB Address: www.autodesk.com
 90
    32897
280
     0
281
     0
  0
CLASS
  1
AEC_DISP_REP_WINDOW_ASSEMBLY_PLAN
  2
AecDbDispRepWindowAssemblyPlan
  3
AecArchBase50|Product Desc: Autodesk Architectural Desktop 2007 |Company: Autodesk,Inc. |WEB Address: www.autodesk.com
 90
    32897
280
     0
281
     0
  0
CLASS
  1
AEC_AECDBDISPREPWINDOWASSEMBLYPLAN100
  2
AecDbDispRepWindowAssemblyPlan100
  3
AecArchDACHBase50|Product Desc: Autodesk Architectural Desktop 2007 |Company: Autodesk,Inc. |WEB Address: www.autodesk.com
 90
    32897
280
     0
281
     0
  0
CLASS
  1
AEC_DISP_REP_WINDOW_MODEL
  2
AecDbDispRepWindowModel
  3
AecArchBase50|Product Desc: Autodesk Architectural Desktop 2007 |Company: Autodesk,Inc. |WEB Address: www.autodesk.com
 90
    32897
280
     0
281
     0
  0
CLASS
  1
AEC_DISP_REP_WINDOW_NOMINAL
  2
AecDbDispRepWindowNominal
  3
AecArchBase50|Product Desc: Autodesk Architectural Desktop 2007 |Company: Autodesk,Inc. |WEB Address: www.autodesk.com
 90
    32897
280
     0
281
     0
  0
CLASS
  1
AEC_DISP_REP_WINDOW_PLAN
  2
AecDbDispRepWindowPlan
  3
AecArchBase50|Product Desc: Autodesk Architectural Desktop 2007 |Company: Autodesk,Inc. |WEB Address: www.autodesk.com
 90
    32897
280
     0
281
     0
  0
CLASS
  1
AECS_DISP_REP_MEMBER_LOGICAL
  2
AecsDbDispRepMemberLogical
  3
AecStructureBase50|Product Desc: Autodesk Architectural Desktop 2007 |Company: Autodesk,Inc. |WEB Address: www.autodesk.com
 90
    32897
280
     0
281
     0
  0
CLASS
  1
AECS_DISP_REP_MEMBER_MODEL_DESIGN
  2
AecsDbDispRepMemberModelDesign
  3
AecStructureBase50|Product Desc: Autodesk Architectural Desktop 2007 |Company: Autodesk,Inc. |WEB Address: www.autodesk.com
 90
    32897
280
     0
281
     0
  0
CLASS
  1
AECS_DISP_REP_MEMBER_PLAN_DESIGN
  2
AecsDbDispRepMemberPlanDesign
  3
AecStructureBase50|Product Desc: Autodesk Architectural Desktop 2007 |Company: Autodesk,Inc. |WEB Address: www.autodesk.com
 90
    32897
280
     0
281
     0
  0
CLASS
  1
AEC_DISP_PROPS_ENT
  2
AecDbDispPropsEnt
  3
AecBase50|Product Desc: Autodesk Architectural Desktop 2007 |Company: Autodesk,Inc. |WEB Address: www.autodesk.com
 90
    32897
280
     0
281
     0
  0
CLASS
  1
AEC_DISP_PROPS_CLIP_VOLUME
  2
AecDbDispPropsClipVol
  3
AecBase50|Product Desc: Autodesk Architectural Desktop 2007 |Company: Autodesk,Inc. |WEB Address: www.autodesk.com
 90
    32897
280
     0
281
     0
  0
CLASS
  1
AEC_DISP_PROPS_SLICE
  2
AecDbDispPropsSlice
  3
AecBase50|Product Desc: Autodesk Architectural Desktop 2007 |Company: Autodesk,Inc. |WEB Address: www.autodesk.com
 90
    32897
280
     0
281
     0
  0
CLASS
  1
AEC_DISP_PROPS_ROOFSLAB_PLAN
  2
AecDbDispPropsRoofSlabPlan
  3
AecArchBase50|Product Desc: Autodesk Architectural Desktop 2007 |Company: Autodesk,Inc. |WEB Address: www.autodesk.com
 90
    32897
280
     0
281
     0
  0
CLASS
  1
AEC_DISP_PROPS_GRID_ASSEMBLY_MODEL
  2
AecDbDispPropsGridAssemblyModel
  3
AecArchBase50|Product Desc: Autodesk Architectural Desktop 2007 |Company: Autodesk,Inc. |WEB Address: www.autodesk.com
 90
    32897
280
     0
281
     0
  0
CLASS
  1
AEC_DISP_PROPS_ROOF
  2
AecDbDispPropsRoof
  3
AecArchBase50|Product Desc: Autodesk Architectural Desktop 2007 |Company: Autodesk,Inc. |WEB Address: www.autodesk.com
 90
    32897
280
     0
281
     0
  0
CLASS
  1
AEC_DISP_PROPS_SPACE_MODEL
  2
AecDbDispPropsSpaceModel
  3
AecArchBase50|Product Desc: Autodesk Architectural Desktop 2007 |Company: Autodesk,Inc. |WEB Address: www.autodesk.com
 90
    32897
280
     0
281
     0
  0
CLASS
  1
AEC_DISP_PROPS_EDITINPLACEPROFILE_MODEL
  2
AecDbDispPropsEditInPlaceProfile
  3
AecBase50|Product Desc: Autodesk Architectural Desktop 2007 |Company: Autodesk,Inc. |WEB Address: www.autodesk.com
 90
    32897
280
     0
281
     0
  0
CLASS
  1
AEC_DISP_PROPS_DOOR
  2
AecDbDispPropsDoor
  3
AecArchBase50|Product Desc: Autodesk Architectural Desktop 2007 |Company: Autodesk,Inc. |WEB Address: www.autodesk.com
 90
    32897
280
     0
281
     0
  0
CLASS
  1
AEC_DISP_PROPS_MASKBLOCK
  2
AecDbDispPropsMaskBlock
  3
AecBase50|Product Desc: Autodesk Architectural Desktop 2007 |Company: Autodesk,Inc. |WEB Address: www.autodesk.com
 90
    32897
280
     0
281
     0
  0
CLASS
  1
AEC_DISP_PROPS_SPACE_PLAN
  2
AecDbDispPropsSpacePlan
  3
AecArchBase50|Product Desc: Autodesk Architectural Desktop 2007 |Company: Autodesk,Inc. |WEB Address: www.autodesk.com
 90
    32897
280
     0
281
     0
  0
CLASS
  1
AEC_DISP_PROPS_RAILING_PLAN
  2
AecDbDispPropsRailingPlan
  3
AecArchBase50|Product Desc: Autodesk Architectural Desktop 2007 |Company: Autodesk,Inc. |WEB Address: www.autodesk.com
 90
    32897
280
     0
281
     0
  0
CLASS
  1
AEC_DISP_PROPS_LAYOUT_GRID2D
  2
AecDbDispPropsLayoutGrid2d
  3
AecBase50|Product Desc: Autodesk Architectural Desktop 2007 |Company: Autodesk,Inc. |WEB Address: www.autodesk.com
 90
    32897
280
     0
281
     0
  0
CLASS
  1
AEC_DISP_PROPS_CLIP_VOLUME_RESULT
  2
AecDbDispPropsClipVolResSubDiv
  3
AecBase50|Product Desc: Autodesk Architectural Desktop 2007 |Company: Autodesk,Inc. |WEB Address: www.autodesk.com
 90
    32897
280
     0
281
     0
  0
CLASS
  1
AEC_DISP_PROPS_STAIR_MODEL
  2
AecDbDispPropsStairModel
  3
AecArchBase50|Product Desc: Autodesk Architectural Desktop 2007 |Company: Autodesk,Inc. |WEB Address: www.autodesk.com
 90
    32897
280
     0
281
     0
  0
CLASS
  1
AEC_DISP_PROPS_LAYOUT_CURVE
  2
AecDbDispPropsLayoutCurve
  3
AecBase50|Product Desc: Autodesk Architectural Desktop 2007 |Company: Autodesk,Inc. |WEB Address: www.autodesk.com
 90
    32897
280
     0
281
     0
  0
CLASS
  1
AEC_DISP_PROPS_POLYGON_MODEL
  2
AecDbDispPropsPolygonModel
  3
AecBaseEx50|Product Desc: Autodesk Architectural Desktop 2007 |Company: Autodesk,Inc. |WEB Address: www.autodesk.com
 90
    32897
280
     0
281
     0
  0
CLASS
  1
AEC_DISP_PROPS_MASS_GROUP
  2
AecDbDispPropsMassGroup
  3
AecBaseEx50|Product Desc: Autodesk Architectural Desktop 2007 |Company: Autodesk,Inc. |WEB Address: www.autodesk.com
 90
    32897
280
     0
281
     0
  0
CLASS
  1
AEC_DISP_PROPS_STAIR_PLAN
  2
AecDbDispPropsStairPlan
  3
AecArchBase50|Product Desc: Autodesk Architectural Desktop 2007 |Company: Autodesk,Inc. |WEB Address: www.autodesk.com
 90
    32897
280
     0
281
     0
  0
CLASS
  1
AEC_DISP_PROPS_OPENING
  2
AecDbDispPropsOpening
  3
AecArchBase50|Product Desc: Autodesk Architectural Desktop 2007 |Company: Autodesk,Inc. |WEB Address: www.autodesk.com
 90
    32897
280
     0
281
     0
  0
CLASS
  1
AEC_DISP_PROPS_WALL_GRAPH
  2
AecDbDispPropsWallGraph
  3
AecArchBase50|Product Desc: Autodesk Architectural Desktop 2007 |Company: Autodesk,Inc. |WEB Address: www.autodesk.com
 90
    32897
280
     0
281
     0
  0
CLASS
  1
AEC_DISP_PROPS_DOOR_NOMINAL
  2
AecDbDispPropsDoorNominal
  3
AecArchBase50|Product Desc: Autodesk Architectural Desktop 2007 |Company: Autodesk,Inc. |WEB Address: www.autodesk.com
 90
    32897
280
     0
281
     0
  0
CLASS
  1
AEC_DISP_PROPS_SLAB
  2
AecDbDispPropsSlab
  3
AecArchBase50|Product Desc: Autodesk Architectural Desktop 2007 |Company: Autodesk,Inc. |WEB Address: www.autodesk.com
 90
    32897
280
     0
281
     0
  0
CLASS
  1
AEC_DISP_PROPS_WALL_MODEL
  2
AecDbDispPropsWallModel
  3
AecArchBase50|Product Desc: Autodesk Architectural Desktop 2007 |Company: Autodesk,Inc. |WEB Address: www.autodesk.com
 90
    32897
280
     0
281
     0
  0
CLASS
  1
AEC_DISP_PROPS_MATERIAL
  2
AecDbDispPropsMaterial
  3
AecBase50|Product Desc: Autodesk Architectural Desktop 2007 |Company: Autodesk,Inc. |WEB Address: www.autodesk.com
 90
    32897
280
     0
281
     0
  0
CLASS
  1
AEC_DISP_PROPS_WINDOW
  2
AecDbDispPropsWindow
  3
AecArchBase50|Product Desc: Autodesk Architectural Desktop 2007 |Company: Autodesk,Inc. |WEB Address: www.autodesk.com
 90
    32897
280
     0
281
     0
  0
CLASS
  1
AEC_DISP_PROPS_LAYOUT_GRID3D
  2
AecDbDispPropsLayoutGrid3d
  3
AecBase50|Product Desc: Autodesk Architectural Desktop 2007 |Company: Autodesk,Inc. |WEB Address: www.autodesk.com
 90
    32897
280
     0
281
     0
  0
CLASS
  1
AEC_DISP_PROPS_GRID_ASSEMBLY_PLAN
  2
AecDbDispPropsGridAssemblyPlan
  3
AecArchBase50|Product Desc: Autodesk Architectural Desktop 2007 |Company: Autodesk,Inc. |WEB Address: www.autodesk.com
 90
    32897
280
     0
281
     0
  0
CLASS
  1
AEC_DISP_PROPS_WALL_SCHEM
  2
AecDbDispPropsWallSchem
  3
AecArchBase50|Product Desc: Autodesk Architectural Desktop 2007 |Company: Autodesk,Inc. |WEB Address: www.autodesk.com
 90
    32897
280
     0
281
     0
  0
CLASS
  1
AEC_DISP_PROPS_WALL_PLAN
  2
AecDbDispPropsWallPlan
  3
AecArchBase50|Product Desc: Autodesk Architectural Desktop 2007 |Company: Autodesk,Inc. |WEB Address: www.autodesk.com
 90
    32897
280
     0
281
     0
  0
CLASS
  1
AEC_DISP_PROPS_SPACE_BOUNDARY
  2
AecDbDispPropsSpaceBoundary
  3
AecArchBase50|Product Desc: Autodesk Architectural Desktop 2007 |Company: Autodesk,Inc. |WEB Address: www.autodesk.com
 90
    32897
280
     0
281
     0
  0
CLASS
  1
AEC_DISP_PROPS_SLAB_PLAN
  2
AecDbDispPropsSlabPlan
  3
AecArchBase50|Product Desc: Autodesk Architectural Desktop 2007 |Company: Autodesk,Inc. |WEB Address: www.autodesk.com
 90
    32897
280
     0
281
     0
  0
CLASS
  1
AEC_DISP_PROPS_RAILING_MODEL
  2
AecDbDispPropsRailingModel
  3
AecArchBase50|Product Desc: Autodesk Architectural Desktop 2007 |Company: Autodesk,Inc. |WEB Address: www.autodesk.com
 90
    32897
280
     0
281
     0
  0
CLASS
  1
AEC_DISP_PROPS_MASS_ELEM_MODEL
  2
AecDbDispPropsMassElem
  3
AecBaseEx50|Product Desc: Autodesk Architectural Desktop 2007 |Company: Autodesk,Inc. |WEB Address: www.autodesk.com
 90
    32897
280
     0
281
     0
  0
CLASS
  1
AEC_DISP_PROPS_DIM
  2
AecDbDispPropsDimGroup
  3
AecArchDACHBase50|Product Desc: Autodesk Architectural Desktop 2007 |Company: Autodesk,Inc. |WEB Address: www.autodesk.com
 90
    32897
280
     0
281
     0
  0
CLASS
  1
AEC_DISP_PROPS_ROOFSLAB
  2
AecDbDispPropsRoofSlab
  3
AecArchBase50|Product Desc: Autodesk Architectural Desktop 2007 |Company: Autodesk,Inc. |WEB Address: www.autodesk.com
 90
    32897
280
     0
281
     0
  0
CLASS
  1
AEC_DISP_PROPS_ENT_REF
  2
AecDbDispPropsEntRef
  3
AecBase50|Product Desc: Autodesk Architectural Desktop 2007 |Company: Autodesk,Inc. |WEB Address: www.autodesk.com
 90
    32897
280
     0
281
     0
  0
CLASS
  1
AEC_DISP_PROPS_2D_SECTION
  2
AecDbDispProps2dSection
  3
AecBase50|Product Desc: Autodesk Architectural Desktop 2007 |Company: Autodesk,Inc. |WEB Address: www.autodesk.com
 90
    32897
280
     0
281
     0
  0
CLASS
  1
AECS_DISP_PROPS_MEMBER_LOGICAL
  2
AecsDbDispPropsMemberLogical
  3
AecStructureBase50|Product Desc: Autodesk Architectural Desktop 2007 |Company: Autodesk,Inc. |WEB Address: www.autodesk.com
 90
    32897
280
     0
281
     0
  0
CLASS
  1
AEC_DISP_PROPS_AREA_DECOMPOSED
  2
AecDbDispPropsAreaDecomposed
  3
AecAreaCalculationBase50|Product Desc: Autodesk Architectural Desktop 2007 |Company: Autodesk,Inc. |WEB Address: www.autodesk.com
 90
    32897
280
     0
281
     0
  0
CLASS
  1
AEC_DISP_PROPS_CAMERA
  2
AecDbDispPropsCamera
  3
AecBase50|Product Desc: Autodesk Architectural Desktop 2007 |Company: Autodesk,Inc. |WEB Address: www.autodesk.com
 90
    32897
280
     0
281
     0
  0
CLASS
  1
AECS_DISP_PROPS_MEMBER
  2
AecsDbDispPropsMember
  3
AecStructureBase50|Product Desc: Autodesk Architectural Desktop 2007 |Company: Autodesk,Inc. |WEB Address: www.autodesk.com
 90
    32897
280
     0
281
     0
  0
CLASS
  1
AECS_DISP_PROPS_MEMBER_PLAN
  2
AecsDbDispPropsMemberPlan
  3
AecStructureBase50|Product Desc: Autodesk Architectural Desktop 2007 |Company: Autodesk,Inc. |WEB Address: www.autodesk.com
 90
    32897
280
     0
281
     0
  0
CLASS
  1
AEC_DISP_PROPS_AREAGROUP
  2
AecDbDispPropsAreaGroup
  3
AecAreaCalculationBase50|Product Desc: Autodesk Architectural Desktop 2007 |Company: Autodesk,Inc. |WEB Address: www.autodesk.com
 90
    32897
280
     0
281
     0
  0
CLASS
  1
AEC_DISP_PROPS_WINDOW_NOMINAL
  2
AecDbDispPropsWindowNominal
  3
AecArchBase50|Product Desc: Autodesk Architectural Desktop 2007 |Company: Autodesk,Inc. |WEB Address: www.autodesk.com
 90
    32897
280
     0
281
     0
  0
CLASS
  1
AEC_DISP_PROPS_AREA
  2
AecDbDispPropsArea
  3
AecAreaCalculationBase50|Product Desc: Autodesk Architectural Desktop 2007 |Company: Autodesk,Inc. |WEB Address: www.autodesk.com
 90
    32897
280
     0
281
     0
  0
CLASS
  1
AEC_DISP_PROPS_SCHEDULE_TABLE
  2
AecDbDispPropsScheduleTable
  3
AecSchedule50|Product Desc: Autodesk Architectural Desktop 2007 |Company: Autodesk,Inc. |WEB Address: www.autodesk.com
 90
    32897
280
     0
281
     0
  0
CLASS
  1
AEC_LAYERKEY_STYLE
  2
AecDbLayerKeyStyle
  3
AecBase50|Product Desc: Autodesk Architectural Desktop 2007 |Company: Autodesk,Inc. |WEB Address: www.autodesk.com
 90
    32897
280
     0
281
     0
  0
CLASS
  1
AEC_VARS_ARCHBASE
  2
AecDbVarsArchBase
  3
AecArchBase50|Product Desc: Autodesk Architectural Desktop 2007 |Company: Autodesk,Inc. |WEB Address: www.autodesk.com
 90
    32897
280
     0
281
     0
  0
CLASS
  1
AEC_VARS_MUNICH
  2
AecDbVarsMunich
  3
AecArchDACHBase50|Product Desc: Autodesk Architectural Desktop 2007 |Company: Autodesk,Inc. |WEB Address: www.autodesk.com
 90
    32897
280
     0
281
     0
  0
CLASS
  1
AEC_NOTIFICATION_TRACKER
  2
AecDbNotificationTracker
  3
AecBase50|Product Desc: Autodesk Architectural Desktop 2007 |Company: Autodesk,Inc. |WEB Address: www.autodesk.com
 90
    32897
280
     0
281
     0
  0
CLASS
  1
AEC_DISP_REP_ANCHOR
  2
AecDbDispRepAnchor
  3
AecBase50|Product Desc: Autodesk Architectural Desktop 2007 |Company: Autodesk,Inc. |WEB Address: www.autodesk.com
 90
    32897
280
     0
281
     0
  0
CLASS
  1
AEC_DISP_REP_POLYGON_TRUECOLOUR
  2
AecDbDispRepPolygonTrueColour
  3
AecBaseEx50|Product Desc: Autodesk Architectural Desktop 2007 |Company: Autodesk,Inc. |WEB Address: www.autodesk.com
 90
    32897
280
     0
281
     0
  0
CLASS
  1
AEC_DISP_PROPS_POLYGON_TRUECOLOUR
  2
AecDbDispPropsPolygonTrueColour
  3
AecBaseEx50|Product Desc: Autodesk Architectural Desktop 2007 |Company: Autodesk,Inc. |WEB Address: www.autodesk.com
 90
    32897
280
     0
281
     0
  0
CLASS
  1
AEC_DISP_REP_BDG_ELEVLINE_RCP
  2
AecDbDispRepBdgElevLineRcp
  3
AecArchBase50|Product Desc: Autodesk Architectural Desktop 2007 |Company: Autodesk,Inc. |WEB Address: www.autodesk.com
 90
    32897
280
     0
281
     0
  0
CLASS
  1
AEC_DISP_REP_BDG_SECTIONLINE_RCP
  2
AecDbDispRepBdgSectionLineRcp
  3
AecArchBase50|Product Desc: Autodesk Architectural Desktop 2007 |Company: Autodesk,Inc. |WEB Address: www.autodesk.com
 90
    32897
280
     0
281
     0
  0
CLASS
  1
AEC_DISP_REP_BDG_SECTION_MODEL
  2
AecDbDispRepBdgSectionModel
  3
AecArchBase50|Product Desc: Autodesk Architectural Desktop 2007 |Company: Autodesk,Inc. |WEB Address: www.autodesk.com
 90
    32897
280
     0
281
     0
  0
CLASS
  1
AEC_DISP_REP_DOOR_ELEV
  2
AecDbDispRepDoorElev
  3
AecArchBase50|Product Desc: Autodesk Architectural Desktop 2007 |Company: Autodesk,Inc. |WEB Address: www.autodesk.com
 90
    32897
280
     0
281
     0
  0
CLASS
  1
AEC_DISP_REP_DOOR_RCP
  2
AecDbDispRepDoorRcp
  3
AecArchBase50|Product Desc: Autodesk Architectural Desktop 2007 |Company: Autodesk,Inc. |WEB Address: www.autodesk.com
 90
    32897
280
     0
281
     0
  0
CLASS
  1
AEC_DISP_REP_DOOR_THRESHOLD_PLAN
  2
AecDbDispRepDoorThresholdPlan
  3
AecArchBase50|Product Desc: Autodesk Architectural Desktop 2007 |Company: Autodesk,Inc. |WEB Address: www.autodesk.com
 90
    32897
280
     0
281
     0
  0
CLASS
  1
AEC_DISP_PROPS_DOOR_THRESHOLD_PLAN
  2
AecDbDispPropsDoorThresholdPlan
  3
AecArchBase50|Product Desc: Autodesk Architectural Desktop 2007 |Company: Autodesk,Inc. |WEB Address: www.autodesk.com
 90
    32897
280
     0
281
     0
  0
CLASS
  1
AEC_DISP_REP_MASS_ELEM_RCP
  2
AecDbDispRepMassElemRcp
  3
AecArchBase50|Product Desc: Autodesk Architectural Desktop 2007 |Company: Autodesk,Inc. |WEB Address: www.autodesk.com
 90
    32897
280
     0
281
     0
  0
CLASS
  1
AEC_DISP_REP_MASS_GROUP_RCP
  2
AecDbDispRepMassGroupRcp
  3
AecArchBase50|Product Desc: Autodesk Architectural Desktop 2007 |Company: Autodesk,Inc. |WEB Address: www.autodesk.com
 90
    32897
280
     0
281
     0
  0
CLASS
  1
AEC_DISP_REP_MVBLOCK_REF_RCP
  2
AecDbDispRepMvBlockRefRcp
  3
AecArchBase50|Product Desc: Autodesk Architectural Desktop 2007 |Company: Autodesk,Inc. |WEB Address: www.autodesk.com
 90
    32897
280
     0
281
     0
  0
CLASS
  1
AEC_DISP_REP_ROOF_RCP
  2
AecDbDispRepRoofRcp
  3
AecArchBase50|Product Desc: Autodesk Architectural Desktop 2007 |Company: Autodesk,Inc. |WEB Address: www.autodesk.com
 90
    32897
280
     0
281
     0
  0
CLASS
  1
AEC_DISP_REP_SPACE_BOUNDARY_DIAGRAM
  2
AecDbDispRepSpaceBoundaryDgrm
  3
AecArchBase50|Product Desc: Autodesk Architectural Desktop 2007 |Company: Autodesk,Inc. |WEB Address: www.autodesk.com
 90
    32897
280
     0
281
     0
  0
CLASS
  1
AEC_DISP_REP_SPACE_RCP
  2
AecDbDispRepSpaceRcp
  3
AecArchBase50|Product Desc: Autodesk Architectural Desktop 2007 |Company: Autodesk,Inc. |WEB Address: www.autodesk.com
 90
    32897
280
     0
281
     0
  0
CLASS
  1
AEC_DISP_REP_SPACE_VOLUME
  2
AecDbDispRepSpaceVolume
  3
AecArchBase50|Product Desc: Autodesk Architectural Desktop 2007 |Company: Autodesk,Inc. |WEB Address: www.autodesk.com
 90
    32897
280
     0
281
     0
  0
CLASS
  1
AEC_DISP_REP_STAIR_PLAN_OVERLAPPING
  2
AecDbDispRepStairPlanOverlapping
  3
AecArchBase50|Product Desc: Autodesk Architectural Desktop 2007 |Company: Autodesk,Inc. |WEB Address: www.autodesk.com
 90
    32897
280
     0
281
     0
  0
CLASS
  1
AEC_DISP_PROPS_STAIR_PLAN_OVERLAPPING
  2
AecDbDispPropsStairPlanOverlapping
  3
AecArchBase50|Product Desc: Autodesk Architectural Desktop 2007 |Company: Autodesk,Inc. |WEB Address: www.autodesk.com
 90
    32897
280
     0
281
     0
  0
CLASS
  1
AEC_DISP_REP_STAIR_RCP
  2
AecDbDispRepStairRcp
  3
AecArchBase50|Product Desc: Autodesk Architectural Desktop 2007 |Company: Autodesk,Inc. |WEB Address: www.autodesk.com
 90
    32897
280
     0
281
     0
  0
CLASS
  1
AEC_DISP_REP_WALL_RCP
  2
AecDbDispRepWallRcp
  3
AecArchBase50|Product Desc: Autodesk Architectural Desktop 2007 |Company: Autodesk,Inc. |WEB Address: www.autodesk.com
 90
    32897
280
     0
281
     0
  0
CLASS
  1
AEC_DISP_REP_WINDOWASSEMBLY_SILL_PLAN
  2
AecDbDispRepWindowAssemblySillPlan
  3
AecArchBase50|Product Desc: Autodesk Architectural Desktop 2007 |Company: Autodesk,Inc. |WEB Address: www.autodesk.com
 90
    32897
280
     0
281
     0
  0
CLASS
  1
AEC_DISP_PROPS_WINDOW_ASSEMBLY_SILL_PLAN
  2
AecDbDispPropsWindowAssemblySillPlan
  3
AecArchBase50|Product Desc: Autodesk Architectural Desktop 2007 |Company: Autodesk,Inc. |WEB Address: www.autodesk.com
 90
    32897
280
     0
281
     0
  0
CLASS
  1
AEC_DISP_REP_WINDOW_ELEV
  2
AecDbDispRepWindowElev
  3
AecArchBase50|Product Desc: Autodesk Architectural Desktop 2007 |Company: Autodesk,Inc. |WEB Address: www.autodesk.com
 90
    32897
280
     0
281
     0
  0
CLASS
  1
AEC_DISP_REP_WINDOW_RCP
  2
AecDbDispRepWindowRcp
  3
AecArchBase50|Product Desc: Autodesk Architectural Desktop 2007 |Company: Autodesk,Inc. |WEB Address: www.autodesk.com
 90
    32897
280
     0
281
     0
  0
CLASS
  1
AEC_DISP_REP_WINDOW_SILL_PLAN
  2
AecDbDispRepWindowSillPlan
  3
AecArchBase50|Product Desc: Autodesk Architectural Desktop 2007 |Company: Autodesk,Inc. |WEB Address: www.autodesk.com
 90
    32897
280
     0
281
     0
  0
CLASS
  1
AEC_DISP_PROPS_WINDOW_SILL_PLAN
  2
AecDbDispPropsWindowSillPlan
  3
AecArchBase50|Product Desc: Autodesk Architectural Desktop 2007 |Company: Autodesk,Inc. |WEB Address: www.autodesk.com
 90
    32897
280
     0
281
     0
  0
CLASS
  1
AEC_DISP_REP_ANCHOR_BUB_TO_GRID_RCP
  2
AecDbDispRepAnchorBubToGridRcp
  3
AecStructureBase50|Product Desc: Autodesk Architectural Desktop 2007 |Company: Autodesk,Inc. |WEB Address: www.autodesk.com
 90
    32897
280
     0
281
     0
  0
CLASS
  1
AEC_DISP_REP_COLUMN_GRID_RCP
  2
AecDbDispRepColumnGridRcp
  3
AecStructureBase50|Product Desc: Autodesk Architectural Desktop 2007 |Company: Autodesk,Inc. |WEB Address: www.autodesk.com
 90
    32897
280
     0
281
     0
  0
CLASS
  1
AECS_DISP_REP_MEMBER_ELEVATION_DESIGN
  2
AecsDbDispRepMemberElevationDesign
  3
AecStructureBase50|Product Desc: Autodesk Architectural Desktop 2007 |Company: Autodesk,Inc. |WEB Address: www.autodesk.com
 90
    32897
280
     0
281
     0
  0
CLASS
  1
AECS_DISP_PROPS_MEMBER_PROJECTED
  2
AecsDbDispPropsMemberProjected
  3
AecStructureBase50|Product Desc: Autodesk Architectural Desktop 2007 |Company: Autodesk,Inc. |WEB Address: www.autodesk.com
 90
    32897
280
     0
281
     0
  0
CLASS
  1
AECS_DISP_REP_MEMBER_ELEVATION_DETAIL
  2
AecsDbDispRepMemberElevationDetail
  3
AecStructureBase50|Product Desc: Autodesk Architectural Desktop 2007 |Company: Autodesk,Inc. |WEB Address: www.autodesk.com
 90
    32897
280
     0
281
     0
  0
CLASS
  1
AECS_DISP_REP_MEMBER_MODEL_DETAIL
  2
AecsDbDispRepMemberModelDetail
  3
AecStructureBase50|Product Desc: Autodesk Architectural Desktop 2007 |Company: Autodesk,Inc. |WEB Address: www.autodesk.com
 90
    32897
280
     0
281
     0
  0
CLASS
  1
AECS_DISP_REP_MEMBER_PLAN_DETAIL
  2
AecsDbDispRepMemberPlanDetail
  3
AecStructureBase50|Product Desc: Autodesk Architectural Desktop 2007 |Company: Autodesk,Inc. |WEB Address: www.autodesk.com
 90
    32897
280
     0
281
     0
  0
CLASS
  1
AECS_DISP_REP_MEMBER_PLAN_SKETCH
  2
AecsDbDispRepMemberPlanSketch
  3
AecStructureBase50|Product Desc: Autodesk Architectural Desktop 2007 |Company: Autodesk,Inc. |WEB Address: www.autodesk.com
 90
    32897
280
     0
281
     0
  0
CLASS
  1
AECS_DISP_PROPS_MEMBER_PLAN_SKETCH
  2
AecsDbDispPropsMemberPlanSketch
  3
AecStructureBase50|Product Desc: Autodesk Architectural Desktop 2007 |Company: Autodesk,Inc. |WEB Address: www.autodesk.com
 90
    32897
280
     0
281
     0
  0
CLASS
  1
AEC_AECDBDISPREPAREA100
  2
AecDbDispRepArea100
  3
AecArchDACHBase50|Product Desc: Autodesk Architectural Desktop 2007 |Company: Autodesk,Inc. |WEB Address: www.autodesk.com
 90
    32897
280
     0
281
     0
  0
CLASS
  1
AEC_AECDBDISPREPAREAGROUP100
  2
AecDbDispRepAreaGroup100
  3
AecArchDACHBase50|Product Desc: Autodesk Architectural Desktop 2007 |Company: Autodesk,Inc. |WEB Address: www.autodesk.com
 90
    32897
280
     0
281
     0
  0
CLASS
  1
AEC_AECDBDISPREPBDGELEVLINEPLAN100
  2
AecDbDispRepBdgElevLinePlan100
  3
AecArchDACHBase50|Product Desc: Autodesk Architectural Desktop 2007 |Company: Autodesk,Inc. |WEB Address: www.autodesk.com
 90
    32897
280
     0
281
     0
  0
CLASS
  1
AEC_AECDBDISPREPBDGSECTIONLINEPLAN100
  2
AecDbDispRepBdgSectionLinePlan100
  3
AecArchDACHBase50|Product Desc: Autodesk Architectural Desktop 2007 |Company: Autodesk,Inc. |WEB Address: www.autodesk.com
 90
    32897
280
     0
281
     0
  0
CLASS
  1
AEC_AECDBDISPREPCEILINGGRIDPLAN100
  2
AecDbDispRepCeilingGridPlan100
  3
AecArchDACHBase50|Product Desc: Autodesk Architectural Desktop 2007 |Company: Autodesk,Inc. |WEB Address: www.autodesk.com
 90
    32897
280
     0
281
     0
  0
CLASS
  1
AEC_AECDBDISPREPCOLUMNGRIDPLAN100
  2
AecDbDispRepColumnGridPlan100
  3
AecArchDACHBase50|Product Desc: Autodesk Architectural Desktop 2007 |Company: Autodesk,Inc. |WEB Address: www.autodesk.com
 90
    32897
280
     0
281
     0
  0
CLASS
  1
AEC_AECDBDISPREPCURTAINWALLLAYOUTPLAN100
  2
AecDbDispRepCurtainWallLayoutPlan100
  3
AecArchDACHBase50|Product Desc: Autodesk Architectural Desktop 2007 |Company: Autodesk,Inc. |WEB Address: www.autodesk.com
 90
    32897
280
     0
281
     0
  0
CLASS
  1
AEC_AECDBDISPREPCURTAINWALLUNITPLAN100
  2
AecDbDispRepCurtainWallUnitPlan100
  3
AecArchDACHBase50|Product Desc: Autodesk Architectural Desktop 2007 |Company: Autodesk,Inc. |WEB Address: www.autodesk.com
 90
    32897
280
     0
281
     0
  0
CLASS
  1
AEC_AECDBDISPREPMVBLOCKREFPLAN100
  2
AecDbDispRepMvBlockRefPlan100
  3
AecArchDACHBase50|Product Desc: Autodesk Architectural Desktop 2007 |Company: Autodesk,Inc. |WEB Address: www.autodesk.com
 90
    32897
280
     0
281
     0
  0
CLASS
  1
AEC_AECDBDISPREPROOFPLAN100
  2
AecDbDispRepRoofPlan100
  3
AecArchDACHBase50|Product Desc: Autodesk Architectural Desktop 2007 |Company: Autodesk,Inc. |WEB Address: www.autodesk.com
 90
    32897
280
     0
281
     0
  0
CLASS
  1
AEC_AECDBDISPREPROOFSLABPLAN100
  2
AecDbDispRepRoofSlabPlan100
  3
AecArchDACHBase50|Product Desc: Autodesk Architectural Desktop 2007 |Company: Autodesk,Inc. |WEB Address: www.autodesk.com
 90
    32897
280
     0
281
     0
  0
CLASS
  1
AEC_AECDBDISPREPSLABPLAN100
  2
AecDbDispRepSlabPlan100
  3
AecArchDACHBase50|Product Desc: Autodesk Architectural Desktop 2007 |Company: Autodesk,Inc. |WEB Address: www.autodesk.com
 90
    32897
280
     0
281
     0
  0
CLASS
  1
AEC_AECDBDISPREPSPACEBOUNDARYPLAN100
  2
AecDbDispRepSpaceBoundaryPlan100
  3
AecArchDACHBase50|Product Desc: Autodesk Architectural Desktop 2007 |Company: Autodesk,Inc. |WEB Address: www.autodesk.com
 90
    32897
280
     0
281
     0
  0
CLASS
  1
AEC_AECDBDISPREPSPACEPLAN100
  2
AecDbDispRepSpacePlan100
  3
AecArchDACHBase50|Product Desc: Autodesk Architectural Desktop 2007 |Company: Autodesk,Inc. |WEB Address: www.autodesk.com
 90
    32897
280
     0
281
     0
  0
CLASS
  1
AEC_AECDBDISPREPWALLPLAN100
  2
AecDbDispRepWallPlan100
  3
AecArchDACHBase50|Product Desc: Autodesk Architectural Desktop 2007 |Company: Autodesk,Inc. |WEB Address: www.autodesk.com
 90
    32897
280
     0
281
     0
  0
CLASS
  1
AEC_AECDBDISPREPAREA50
  2
AecDbDispRepArea50
  3
AecArchDACHBase50|Product Desc: Autodesk Architectural Desktop 2007 |Company: Autodesk,Inc. |WEB Address: www.autodesk.com
 90
    32897
280
     0
281
     0
  0
CLASS
  1
AEC_AECDBDISPREPAREAGROUP50
  2
AecDbDispRepAreaGroup50
  3
AecArchDACHBase50|Product Desc: Autodesk Architectural Desktop 2007 |Company: Autodesk,Inc. |WEB Address: www.autodesk.com
 90
    32897
280
     0
281
     0
  0
CLASS
  1
AEC_AECDBDISPREPBDGELEVLINEPLAN50
  2
AecDbDispRepBdgElevLinePlan50
  3
AecArchDACHBase50|Product Desc: Autodesk Architectural Desktop 2007 |Company: Autodesk,Inc. |WEB Address: www.autodesk.com
 90
    32897
280
     0
281
     0
  0
CLASS
  1
AEC_AECDBDISPREPBDGSECTIONLINEPLAN50
  2
AecDbDispRepBdgSectionLinePlan50
  3
AecArchDACHBase50|Product Desc: Autodesk Architectural Desktop 2007 |Company: Autodesk,Inc. |WEB Address: www.autodesk.com
 90
    32897
280
     0
281
     0
  0
CLASS
  1
AEC_AECDBDISPREPCEILINGGRIDPLAN50
  2
AecDbDispRepCeilingGridPlan50
  3
AecArchDACHBase50|Product Desc: Autodesk Architectural Desktop 2007 |Company: Autodesk,Inc. |WEB Address: www.autodesk.com
 90
    32897
280
     0
281
     0
  0
CLASS
  1
AEC_AECDBDISPREPCOLUMNGRIDPLAN50
  2
AecDbDispRepColumnGridPlan50
  3
AecArchDACHBase50|Product Desc: Autodesk Architectural Desktop 2007 |Company: Autodesk,Inc. |WEB Address: www.autodesk.com
 90
    32897
280
     0
281
     0
  0
CLASS
  1
AEC_AECDBDISPREPCURTAINWALLLAYOUTPLAN50
  2
AecDbDispRepCurtainWallLayoutPlan50
  3
AecArchDACHBase50|Product Desc: Autodesk Architectural Desktop 2007 |Company: Autodesk,Inc. |WEB Address: www.autodesk.com
 90
    32897
280
     0
281
     0
  0
CLASS
  1
AEC_AECDBDISPREPCURTAINWALLUNITPLAN50
  2
AecDbDispRepCurtainWallUnitPlan50
  3
AecArchDACHBase50|Product Desc: Autodesk Architectural Desktop 2007 |Company: Autodesk,Inc. |WEB Address: www.autodesk.com
 90
    32897
280
     0
281
     0
  0
CLASS
  1
AEC_AECDBDISPREPMVBLOCKREFPLAN50
  2
AecDbDispRepMvBlockRefPlan50
  3
AecArchDACHBase50|Product Desc: Autodesk Architectural Desktop 2007 |Company: Autodesk,Inc. |WEB Address: www.autodesk.com
 90
    32897
280
     0
281
     0
  0
CLASS
  1
AEC_AECDBDISPREPROOFPLAN50
  2
AecDbDispRepRoofPlan50
  3
AecArchDACHBase50|Product Desc: Autodesk Architectural Desktop 2007 |Company: Autodesk,Inc. |WEB Address: www.autodesk.com
 90
    32897
280
     0
281
     0
  0
CLASS
  1
AEC_AECDBDISPREPROOFSLABPLAN50
  2
AecDbDispRepRoofSlabPlan50
  3
AecArchDACHBase50|Product Desc: Autodesk Architectural Desktop 2007 |Company: Autodesk,Inc. |WEB Address: www.autodesk.com
 90
    32897
280
     0
281
     0
  0
CLASS
  1
AEC_AECDBDISPREPSLABPLAN50
  2
AecDbDispRepSlabPlan50
  3
AecArchDACHBase50|Product Desc: Autodesk Architectural Desktop 2007 |Company: Autodesk,Inc. |WEB Address: www.autodesk.com
 90
    32897
280
     0
281
     0
  0
CLASS
  1
AEC_AECDBDISPREPSPACEBOUNDARYPLAN50
  2
AecDbDispRepSpaceBoundaryPlan50
  3
AecArchDACHBase50|Product Desc: Autodesk Architectural Desktop 2007 |Company: Autodesk,Inc. |WEB Address: www.autodesk.com
 90
    32897
280
     0
281
     0
  0
CLASS
  1
AEC_AECDBDISPREPSPACEPLAN50
  2
AecDbDispRepSpacePlan50
  3
AecArchDACHBase50|Product Desc: Autodesk Architectural Desktop 2007 |Company: Autodesk,Inc. |WEB Address: www.autodesk.com
 90
    32897
280
     0
281
     0
  0
CLASS
  1
AEC_AECDBDISPREPWALLPLAN50
  2
AecDbDispRepWallPlan50
  3
AecArchDACHBase50|Product Desc: Autodesk Architectural Desktop 2007 |Company: Autodesk,Inc. |WEB Address: www.autodesk.com
 90
    32897
280
     0
281
     0
  0
CLASS
  1
AEC_AECDBDISPREPWINDOWASSEMBLYPLAN50
  2
AecDbDispRepWindowAssemblyPlan50
  3
AecArchDACHBase50|Product Desc: Autodesk Architectural Desktop 2007 |Company: Autodesk,Inc. |WEB Address: www.autodesk.com
 90
    32897
280
     0
281
     0
  0
CLASS
  1
AEC_DB_DISP_REP_DIM_GROUP_PLAN100
  2
AecDbDispRepDimGroupPlan100
  3
AecArchDACHBase50|Product Desc: Autodesk Architectural Desktop 2007 |Company: Autodesk,Inc. |WEB Address: www.autodesk.com
 90
    32897
280
     0
281
     0
  0
CLASS
  1
AEC_DB_DISP_REP_DIM_GROUP_PLAN50
  2
AecDbDispRepDimGroupPlan50
  3
AecArchDACHBase50|Product Desc: Autodesk Architectural Desktop 2007 |Company: Autodesk,Inc. |WEB Address: www.autodesk.com
 90
    32897
280
     0
281
     0
  0
CLASS
  1
AEC_DISP_REP_DOOR_PLAN_50
  2
AecDbDispRepDoorPlan50
  3
AecArchDACHBase50|Product Desc: Autodesk Architectural Desktop 2007 |Company: Autodesk,Inc. |WEB Address: www.autodesk.com
 90
    32897
280
     0
281
     0
  0
CLASS
  1
AEC_DISP_PROPS_DOOR_PLAN_50
  2
AecDbDispPropsDoorPlan50
  3
AecArchDACHBase50|Product Desc: Autodesk Architectural Desktop 2007 |Company: Autodesk,Inc. |WEB Address: www.autodesk.com
 90
    32897
280
     0
281
     0
  0
CLASS
  1
AEC_DISP_REP_DOOR_PLAN_HEKTO
  2
AecDbDispRepDoorPlanHekto
  3
AecArchDACHBase50|Product Desc: Autodesk Architectural Desktop 2007 |Company: Autodesk,Inc. |WEB Address: www.autodesk.com
 90
    32897
280
     0
281
     0
  0
CLASS
  1
AEC_DISP_PROPS_DOOR_PLAN_100
  2
AecDbDispPropsDoorPlan100
  3
AecArchDACHBase50|Product Desc: Autodesk Architectural Desktop 2007 |Company: Autodesk,Inc. |WEB Address: www.autodesk.com
 90
    32897
280
     0
281
     0
  0
CLASS
  1
AEC_DISP_REP_DOOR_THRESHOLD_SYMBOL_PLAN
  2
AecDbDispRepDoorThresholdSymbolPlan
  3
AecArchDACHBase50|Product Desc: Autodesk Architectural Desktop 2007 |Company: Autodesk,Inc. |WEB Address: www.autodesk.com
 90
    32897
280
     0
281
     0
  0
CLASS
  1
AEC_DISP_PROPS_DOOR_THRESHOLD_SYMBOL_PLAN
  2
AecDbDispPropsDoorThresholdSymbolPlan
  3
AecArchDACHBase50|Product Desc: Autodesk Architectural Desktop 2007 |Company: Autodesk,Inc. |WEB Address: www.autodesk.com
 90
    32897
280
     0
281
     0
  0
CLASS
  1
AEC_DISPREPAECDBDISPREPMASSELEMPLAN100
  2
AecDbDispRepMassElemPlan100
  3
AecArchDACHBase50|Product Desc: Autodesk Architectural Desktop 2007 |Company: Autodesk,Inc. |WEB Address: www.autodesk.com
 90
    32897
280
     0
281
     0
  0
CLASS
  1
AEC_DISPROPSMASSELEMPLANCOMMON
  2
AecDbDispPropsMassElemPlanCommon
  3
AecArchDACHBase50|Product Desc: Autodesk Architectural Desktop 2007 |Company: Autodesk,Inc. |WEB Address: www.autodesk.com
 90
    32897
280
     0
281
     0
  0
CLASS
  1
AEC_DISPREPAECDBDISPREPMASSELEMPLAN50
  2
AecDbDispRepMassElemPlan50
  3
AecArchDACHBase50|Product Desc: Autodesk Architectural Desktop 2007 |Company: Autodesk,Inc. |WEB Address: www.autodesk.com
 90
    32897
280
     0
281
     0
  0
CLASS
  1
AEC_DISPREPAECDBDISPREPMASSGROUPPLAN100
  2
AecDbDispRepMassGroupPlan100
  3
AecArchDACHBase50|Product Desc: Autodesk Architectural Desktop 2007 |Company: Autodesk,Inc. |WEB Address: www.autodesk.com
 90
    32897
280
     0
281
     0
  0
CLASS
  1
AEC_DISPROPSMASSGROUPPLANCOMMON
  2
AecDbDispPropsMassGroupPlanCommon
  3
AecArchDACHBase50|Product Desc: Autodesk Architectural Desktop 2007 |Company: Autodesk,Inc. |WEB Address: www.autodesk.com
 90
    32897
280
     0
281
     0
  0
CLASS
  1
AEC_DISPREPAECDBDISPREPMASSGROUPPLAN50
  2
AecDbDispRepMassGroupPlan50
  3
AecArchDACHBase50|Product Desc: Autodesk Architectural Desktop 2007 |Company: Autodesk,Inc. |WEB Address: www.autodesk.com
 90
    32897
280
     0
281
     0
  0
CLASS
  1
AEC_DISPREPAECDBDISPREPOPENINGPLAN100
  2
AecDbDispRepOpeningPlan100
  3
AecArchDACHBase50|Product Desc: Autodesk Architectural Desktop 2007 |Company: Autodesk,Inc. |WEB Address: www.autodesk.com
 90
    32897
280
     0
281
     0
  0
CLASS
  1
AEC_DISPROPSOPENINGPLANCOMMONHATCHED
  2
AecDbDispPropsOpeningPlanCommonHatched
  3
AecArchDACHBase50|Product Desc: Autodesk Architectural Desktop 2007 |Company: Autodesk,Inc. |WEB Address: www.autodesk.com
 90
    32897
280
     0
281
     0
  0
CLASS
  1
AEC_DISPREPAECDBDISPREPOPENINGPLAN50
  2
AecDbDispRepOpeningPlan50
  3
AecArchDACHBase50|Product Desc: Autodesk Architectural Desktop 2007 |Company: Autodesk,Inc. |WEB Address: www.autodesk.com
 90
    32897
280
     0
281
     0
  0
CLASS
  1
AEC_DISPREPAECDBDISPREPOPENINGPLANREFLECTED
  2
AecDbDispRepOpeningPlanReflected
  3
AecArchDACHBase50|Product Desc: Autodesk Architectural Desktop 2007 |Company: Autodesk,Inc. |WEB Address: www.autodesk.com
 90
    32897
280
     0
281
     0
  0
CLASS
  1
AEC_DISPROPSOPENINGPLANCOMMON
  2
AecDbDispPropsOpeningPlanCommon
  3
AecArchDACHBase50|Product Desc: Autodesk Architectural Desktop 2007 |Company: Autodesk,Inc. |WEB Address: www.autodesk.com
 90
    32897
280
     0
281
     0
  0
CLASS
  1
AEC_DISPREPAECDBDISPREPOPENINGSILLPLAN
  2
AecDbDispRepOpeningSillPlan
  3
AecArchDACHBase50|Product Desc: Autodesk Architectural Desktop 2007 |Company: Autodesk,Inc. |WEB Address: www.autodesk.com
 90
    32897
280
     0
281
     0
  0
CLASS
  1
AEC_DISPROPSOPENINGSILLPLAN
  2
AecDbDispPropsOpeningSillPlan
  3
AecArchDACHBase50|Product Desc: Autodesk Architectural Desktop 2007 |Company: Autodesk,Inc. |WEB Address: www.autodesk.com
 90
    32897
280
     0
281
     0
  0
CLASS
  1
AEC_DISP_REP_RAILING_PLAN_100
  2
AecDbDispRepRailingPlan100
  3
AecArchDACHBase50|Product Desc: Autodesk Architectural Desktop 2007 |Company: Autodesk,Inc. |WEB Address: www.autodesk.com
 90
    32897
280
     0
281
     0
  0
CLASS
  1
AEC_DISP_ROPS_RAILING_PLAN_100
  2
AecDbDispPropsRailingPlan100
  3
AecArchDACHBase50|Product Desc: Autodesk Architectural Desktop 2007 |Company: Autodesk,Inc. |WEB Address: www.autodesk.com
 90
    32897
280
     0
281
     0
  0
CLASS
  1
AEC_DISP_REP_RAILING_PLAN_50
  2
AecDbDispRepRailingPlan50
  3
AecArchDACHBase50|Product Desc: Autodesk Architectural Desktop 2007 |Company: Autodesk,Inc. |WEB Address: www.autodesk.com
 90
    32897
280
     0
281
     0
  0
CLASS
  1
AEC_DISP_ROPS_RAILING_PLAN_50
  2
AecDbDispPropsRailingPlan50
  3
AecArchDACHBase50|Product Desc: Autodesk Architectural Desktop 2007 |Company: Autodesk,Inc. |WEB Address: www.autodesk.com
 90
    32897
280
     0
281
     0
  0
CLASS
  1
AEC_DISP_REP_STAIR_PLAN_100
  2
AecDbDispRepStairPlan100
  3
AecArchDACHBase50|Product Desc: Autodesk Architectural Desktop 2007 |Company: Autodesk,Inc. |WEB Address: www.autodesk.com
 90
    32897
280
     0
281
     0
  0
CLASS
  1
AEC_DISP_ROPS_STAIR_PLAN_100
  2
AecDbDispPropsStairPlan100
  3
AecArchDACHBase50|Product Desc: Autodesk Architectural Desktop 2007 |Company: Autodesk,Inc. |WEB Address: www.autodesk.com
 90
    32897
280
     0
281
     0
  0
CLASS
  1
AEC_DISP_REP_STAIR_PLAN_50
  2
AecDbDispRepStairPlan50
  3
AecArchDACHBase50|Product Desc: Autodesk Architectural Desktop 2007 |Company: Autodesk,Inc. |WEB Address: www.autodesk.com
 90
    32897
280
     0
281
     0
  0
CLASS
  1
AEC_DISP_ROPS_STAIR_PLAN_50
  2
AecDbDispPropsStairPlan50
  3
AecArchDACHBase50|Product Desc: Autodesk Architectural Desktop 2007 |Company: Autodesk,Inc. |WEB Address: www.autodesk.com
 90
    32897
280
     0
281
     0
  0
CLASS
  1
AEC_DISP_REP_WINDOW_PLAN_100
  2
AecDbDispRepWindowPlan100
  3
AecArchDACHBase50|Product Desc: Autodesk Architectural Desktop 2007 |Company: Autodesk,Inc. |WEB Address: www.autodesk.com
 90
    32897
280
     0
281
     0
  0
CLASS
  1
AEC_DISP_PROPS_WINDOW_PLAN_100
  2
AecDbDispPropsWindowPlan100
  3
AecArchDACHBase50|Product Desc: Autodesk Architectural Desktop 2007 |Company: Autodesk,Inc. |WEB Address: www.autodesk.com
 90
    32897
280
     0
281
     0
  0
CLASS
  1
AEC_DISP_REP_WINDOW_PLAN_50
  2
AecDbDispRepWindowPlan50
  3
AecArchDACHBase50|Product Desc: Autodesk Architectural Desktop 2007 |Company: Autodesk,Inc. |WEB Address: www.autodesk.com
 90
    32897
280
     0
281
     0
  0
CLASS
  1
AEC_DISP_PROPS_WINDOW_PLAN_50
  2
AecDbDispPropsWindowPlan50
  3
AecArchDACHBase50|Product Desc: Autodesk Architectural Desktop 2007 |Company: Autodesk,Inc. |WEB Address: www.autodesk.com
 90
    32897
280
     0
281
     0
  0
CLASS
  1
BINRECORD
  2
AcAecBinRecord
  3
AecBase50|Product Desc: Autodesk Architectural Desktop 2007 |Company: Autodesk,Inc. |WEB Address: www.autodesk.com
 90
    32897
280
     0
281
     0
  0
CLASS
  1
SPATIAL_FILTER
  2
AcDbSpatialFilter
  3
ObjectDBX Classes
 90
    32768
280
     0
281
     0
  0
CLASS
  1
AEC_VARS_STRUCTUREBASE
  2
AecsDbVarsStructureBase
  3
AecStructureBase50|Product Desc: Autodesk Architectural Desktop 2007 |Company: Autodesk,Inc. |WEB Address: www.autodesk.com
 90
    32897
280
     0
281
     0
  0
CLASS
  1
DIMASSOC
  2
AcDbDimAssoc
  3
"AcDbDimAssoc|Product Desc:     AcDim ARX App For Dimension|Company:          Autodesk, Inc.|WEB Address:      www.autodesk.com"
 90
    32768
280
     0
281
     0
  0
CLASS
  1
TABLESTYLE
  2
AcDbTableStyle
  3
ObjectDBX Classes
 90
     4095
280
     0
281
     0
  0
CLASS
  1
MATERIAL
  2
AcDbMaterial
  3
ObjectDBX Classes
 90
     1153
280
     0
281
     0
  0
CLASS
  1
VISUALSTYLE
  2
AcDbVisualStyle
  3
ObjectDBX Classes
 90
     4095
280
     0
281
     0
  0
CLASS
  1
EXACXREFPANELOBJECT
  2
ExAcXREFPanelObject
  3
EXAC_ESW
 90
    33793
280
     1
281
     0
  0
CLASS
  1
NPOCOLLECTION
  2
AcDbImpNonPersistentObjectsCollection
  3
ObjectDBX Classes
 90
    33921
280
     0
281
     0
  0
CLASS
  1
AEC_AECDBDISPREPZONE100
  2
AecDbDispRepZonePlan100
  3
AecArchDACHBase50|Product Desc: Autodesk Architectural Desktop 2007 |Company: Autodesk,Inc. |WEB Address: www.autodesk.com
 90
    32897
280
     0
281
     0
  0
CLASS
  1
AEC_DISP_PROPS_ZONE
  2
AecDbDispPropsZone
  3
AecArchBase50|Product Desc: Autodesk Architectural Desktop 2007 |Company: Autodesk,Inc. |WEB Address: www.autodesk.com
 90
    32897
280
     0
281
     0
  0
CLASS
  1
AEC_AECDBDISPREPZONE50
  2
AecDbDispRepZonePlan50
  3
AecArchDACHBase50|Product Desc: Autodesk Architectural Desktop 2007 |Company: Autodesk,Inc. |WEB Address: www.autodesk.com
 90
    32897
280
     0
281
     0
  0
CLASS
  1
AEC_DISP_REP_DISPLAYTHEME
  2
AecDbDispRepDisplayTheme
  3
AecBase50|Product Desc: Autodesk Architectural Desktop 2007 |Company: Autodesk,Inc. |WEB Address: www.autodesk.com
 90
    32897
280
     0
281
     0
  0
CLASS
  1
AEC_DISP_PROPS_DISPLAYTHEME
  2
AecDbDispPropsDisplayTheme
  3
AecBase50|Product Desc: Autodesk Architectural Desktop 2007 |Company: Autodesk,Inc. |WEB Address: www.autodesk.com
 90
    32897
280
     0
281
     0
  0
CLASS
  1
AEC_DISP_REP_ANCHOR_EXT_TAG_TO_ENT
  2
AecDbDispRepAnchorExtendedTagToEnt
  3
AecScheduleData50|Product Desc: Autodesk Architectural Desktop 2007 |Company: Autodesk,Inc. |WEB Address: www.autodesk.com
 90
    32897
280
     0
281
     0
  0
CLASS
  1
AEC_DISP_REP_SPACE_DECOMPOSED
  2
AecDbDispRepSpaceDecomposed
  3
AecArchBase50|Product Desc: Autodesk Architectural Desktop 2007 |Company: Autodesk,Inc. |WEB Address: www.autodesk.com
 90
    32897
280
     0
281
     0
  0
CLASS
  1
AEC_DISP_PROPS_SPACE_DECOMPOSED
  2
AecDbDispPropsSpaceDecomposed
  3
AecArchBase50|Product Desc: Autodesk Architectural Desktop 2007 |Company: Autodesk,Inc. |WEB Address: www.autodesk.com
 90
    32897
280
     0
281
     0
  0
CLASS
  1
AEC_DISP_REP_ZONE
  2
AecDbDispRepZone
  3
AecArchBase50|Product Desc: Autodesk Architectural Desktop 2007 |Company: Autodesk,Inc. |WEB Address: www.autodesk.com
 90
    32897
280
     0
281
     0
  0
CLASS
  1
ACAD_EVALUATION_GRAPH
  2
AcDbEvalGraph
  3
ObjectDBX Classes
 90
    33921
280
     0
281
     0
  0
CLASS
  1
BLOCKFLIPPARAMETER
  2
AcDbBlockFlipParameter
  3
ObjectDBX Classes
 90
    33921
280
     0
281
     0
  0
CLASS
  1
BLOCKFLIPGRIP
  2
AcDbBlockFlipGrip
  3
ObjectDBX Classes
 90
    33921
280
     0
281
     0
  0
CLASS
  1
BLOCKGRIPLOCATIONCOMPONENT
  2
AcDbBlockGripExpr
  3
ObjectDBX Classes
 90
    33921
280
     0
281
     0
  0
CLASS
  1
BLOCKFLIPACTION
  2
AcDbBlockFlipAction
  3
ObjectDBX Classes
 90
    33921
280
     0
281
     0
  0
CLASS
  1
BLOCKROTATIONPARAMETER
  2
AcDbBlockRotationParameter
  3
ObjectDBX Classes
 90
    33921
280
     0
281
     0
  0
CLASS
  1
BLOCKROTATIONGRIP
  2
AcDbBlockRotationGrip
  3
ObjectDBX Classes
 90
    33921
280
     0
281
     0
  0
CLASS
  1
BLOCKROTATEACTION
  2
AcDbBlockRotateAction
  3
ObjectDBX Classes
 90
    33921
280
     0
281
     0
  0
CLASS
  1
BLOCKBASEPOINTPARAMETER
  2
AcDbBlockBasepointParameter
  3
ObjectDBX Classes
 90
    33921
280
     0
281
     0
  0
CLASS
  1
ACDB_DYNAMICBLOCKPURGEPREVENTER_VERSION
  2
AcDbDynamicBlockPurgePreventer
  3
ObjectDBX Classes
 90
    33921
280
     0
281
     0
  0
CLASS
  1
ACDB_BLOCKREPRESENTATION_DATA
  2
AcDbBlockRepresentationData
  3
ObjectDBX Classes
 90
    33921
280
     0
281
     0
  0
CLASS
  1
BLOCKVISIBILITYPARAMETER
  2
AcDbBlockVisibilityParameter
  3
ObjectDBX Classes
 90
    33921
280
     0
281
     0
  0
CLASS
  1
BLOCKVISIBILITYGRIP
  2
AcDbBlockVisibilityGrip
  3
ObjectDBX Classes
 90
    33921
280
     0
281
     0
  0
CLASS
  1
BLOCKLINEARPARAMETER
  2
AcDbBlockLinearParameter
  3
ObjectDBX Classes
 90
    33921
280
     0
281
     0
  0
CLASS
  1
BLOCKSTRETCHACTION
  2
AcDbBlockStretchAction
  3
ObjectDBX Classes
 90
    33921
280
     0
281
     0
  0
CLASS
  1
BLOCKLOOKUPPARAMETER
  2
AcDbBlockLookupParameter
  3
ObjectDBX Classes
 90
    33921
280
     0
281
     0
  0
CLASS
  1
BLOCKLOOKUPGRIP
  2
AcDbBlockLookupGrip
  3
ObjectDBX Classes
 90
    33921
280
     0
281
     0
  0
CLASS
  1
BLOCKLOOKUPACTION
  2
AcDbBlockLookupAction
  3
ObjectDBX Classes
 90
    33921
280
     0
281
     0
  0
CLASS
  1
BLOCKMOVEACTION
  2
AcDbBlockMoveAction
  3
ObjectDBX Classes
 90
    33921
280
     0
281
     0
  0
CLASS
  1
BLOCKLINEARGRIP
  2
AcDbBlockLinearGrip
  3
ObjectDBX Classes
 90
    33921
280
     0
281
     0
  0
CLASS
  1
OBJECT_PTR
  2
CAseDLPNTableRecord
  3
ASE-LPNTableRecord
 90
        1
280
     0
281
     0
  0
CLASS
  1
SCALE
  2
AcDbScale
  3
ObjectDBX Classes
 90
     1153
280
     0
281
     0
  0
CLASS
  1
MLEADERSTYLE
  2
AcDbMLeaderStyle
  3
ACDB_MLEADERSTYLE_CLASS
 90
    36863
280
     0
281
     0
  0
CLASS
  1
AEC_REFEDIT_STATUS_TRACKER
  2
AecDbRefEditStatusTracker
  3
AecArchBase50|Product Desc: Autodesk Architectural Desktop 2007 |Company: Autodesk,Inc. |WEB Address: www.autodesk.com
 90
    32897
280
     0
281
     0
  0
CLASS
  1
CELLSTYLEMAP
  2
AcDbCellStyleMap
  3
ObjectDBX Classes
 90
     1152
280
     0
281
     0
  0
ENDSEC
  0
SECTION
  2
TABLES
  0
TABLE
  2
VPORT
  5
2BB
330
0
100
AcDbSymbolTable
 70
     1
  0
VPORT
  5
2BC
330
2BB
100
AcDbSymbolTableRecord
100
AcDbViewportTableRecord
  2
*Active
 70
     0
 10
0.0
 20
0.0
 11
1.0
 21
1.0
 12
220335.287787905
 22
135802.4211017149
 13
0.0
 23
0.0
 14
10.0
 24
10.0
 15
10.0
 25
10.0
 16
0.0
 26
0.0
 36
1.0
 17
0.0
 27
0.0
 37
0.0
 40
11802.11611810993
 41
1.839826839826839
 42
50.0
 43
0.0
 44
0.0
 50
0.0
 51
0.0
 71
     0
 72
  1000
 73
     1
 74
     1
 75
     0
 76
     0
 77
     0
 78
     0
281
     0
 65
     1
110
0.0
120
0.0
130
0.0
111
1.0
121
0.0
131
0.0
112
0.0
122
1.0
132
0.0
 79
     0
146
0.0
  0
ENDTAB
  0
TABLE
  2
LTYPE
  5
2B6
330
0
100
AcDbSymbolTable
 70
     2
  0
LTYPE
  5
2B7
330
2B6
100
AcDbSymbolTableRecord
100
AcDbLinetypeTableRecord
  2
ByBlock
 70
     0
  3

 72
    65
 73
     0
 40
0.0
  0
LTYPE
  5
2B8
330
2B6
100
AcDbSymbolTableRecord
100
AcDbLinetypeTableRecord
  2
ByLayer
 70
     0
  3

 72
    65
 73
     0
 40
0.0
  0
LTYPE
  5
E
330
2B6
100
AcDbSymbolTableRecord
100
AcDbLinetypeTableRecord
  2
Continuous
 70
     0
  3
Solid line
 72
    65
 73
     0
 40
0.0
  0
LTYPE
  5
25
330
2B6
100
AcDbSymbolTableRecord
100
AcDbLinetypeTableRecord
  2
HIDDEN
 70
     0
  3
Hidden __ __ __ __ __ __ __ __ __ __ __ __ __ _
 72
    65
 73
     2
 40
0.375
 49
0.25
 74
     0
 49
-0.125
 74
     0
  0
ENDTAB
  0
TABLE
  2
LAYER
  5
2AD
102
{ACAD_XDICTIONARY
360
2AE
102
}
330
0
100
AcDbSymbolTable
 70
     5
  0
LAYER
  5
6
102
{ACAD_XDICTIONARY
360
7
102
}
330
2AD
100
AcDbSymbolTableRecord
100
AcDbLayerTableRecord
  2
0
 70
     0
 62
     7
  6
Continuous
370
    -3
390
9
1001
RAK
1000
{ACET-LAYISO
1070
     0
1070
     7
1000
Continuous
1071
       -3
1071
        1
1005
9
1000
ACET-LAYISO}
  0
LAYER
  5
17
102
{ACAD_XDICTIONARY
360
18
102
}
330
2AD
100
AcDbSymbolTableRecord
100
AcDbLayerTableRecord
  2
RAMKI-A4
 70
     0
 62
     2
  6
Continuous
290
     0
370
    -3
390
9
1001
RAK
1000
{ACET-LAYISO
1070
     0
1070
     2
1000
Continuous
1071
       -3
1071
        0
1005
9
1000
ACET-LAYISO}
  0
LAYER
  5
126
102
{ACAD_XDICTIONARY
360
127
102
}
330
2AD
100
AcDbSymbolTableRecord
100
AcDbLayerTableRecord
  2
0Wymiary-PL
 70
     0
 62
     1
  6
Continuous
370
     5
390
9
  0
LAYER
  5
11
102
{ACAD_XDICTIONARY
360
12
102
}
330
2AD
100
AcDbSymbolTableRecord
100
AcDbLayerTableRecord
  2
0Napisy-PL
 70
     0
 62
   140
  6
Continuous
370
    15
390
9
1001
RAK
1000
{ACET-LAYISO
1070
     0
1070
   140
1000
Continuous
1071
       15
1071
        1
1005
9
1000
ACET-LAYISO}
  0
LAYER
  5
1B
102
{ACAD_XDICTIONARY
360
1C
102
}
330
2AD
100
AcDbSymbolTableRecord
100
AcDbLayerTableRecord
  2
0Napisy
 70
     0
 62
   140
  6
Continuous
370
    15
390
9
1001
RAK
1000
{ACET-LAYISO
1070
     0
1070
    33
1000
Continuous
1071
       18
1071
        1
1005
9
1000
ACET-LAYISO}
  0
ENDTAB
  0
TABLE
  2
STYLE
  5
2B3
330
0
100
AcDbSymbolTable
 70
     4
  0
STYLE
  5
2B4
330
2B3
100
AcDbSymbolTableRecord
100
AcDbTextStyleTableRecord
  2
Standard
 70
     0
 40
0.0
 41
1.0
 50
0.0
 71
     0
 42
2.5
  3
txt
  4

  0
STYLE
  5
130
330
2B3
100
AcDbSymbolTableRecord
100
AcDbTextStyleTableRecord
  2
ROMANS
 70
     0
 40
0.0
 41
0.9
 50
0.0
 71
     0
 42
20.0
  3
romans.shx
  4

  0
STYLE
  5
14
330
2B3
100
AcDbSymbolTableRecord
100
AcDbTextStyleTableRecord
  2
AVA
 70
     0
 40
0.0
 41
1.0
 50
0.0
 71
     0
 42
158.5644099714409
  3
arial.ttf
  4

1001
ACAD
1000
Arial CE
1071
    60962
  0
STYLE
  5
1E
330
2B3
100
AcDbSymbolTableRecord
100
AcDbTextStyleTableRecord
  2
ARIAL
 70
     0
 40
0.0
 41
1.0
 50
0.0
 71
     0
 42
20.0
  3
arial.ttf
  4

1001
ACAD
1000
Arial CE
1071
    60962
  0
ENDTAB
  0
TABLE
  2
VIEW
  5
2B9
330
0
100
AcDbSymbolTable
 70
     1
  0
VIEW
  5
29F
330
2B9
100
AcDbSymbolTableRecord
100
AcDbViewTableRecord
  2
RODODENDRON 5
 70
     0
 40
14020.0
 10
220287.1664355166
 20
148687.514558954
 41
10200.00000000003
 11
0.0
 21
0.0
 31
1.0
 12
0.0
 22
0.0
 32
0.0
 42
50.0
 43
0.0
 44
0.0
 50
0.0
 71
     0
281
     0
 72
     1
110
0.0
120
0.0
130
0.0
111
1.0
121
0.0
131
0.0
112
0.0
122
1.0
132
0.0
 79
     0
146
0.0
  0
ENDTAB
  0
TABLE
  2
UCS
  5
2BA
330
0
100
AcDbSymbolTable
 70
     0
  0
ENDTAB
  0
TABLE
  2
APPID
  5
2BD
330
0
100
AcDbSymbolTable
 70
     7
  0
APPID
  5
15
330
2BD
100
AcDbSymbolTableRecord
100
AcDbRegAppTableRecord
  2
ACAD
 70
     0
  0
APPID
  5
F
330
2BD
100
AcDbSymbolTableRecord
100
AcDbRegAppTableRecord
  2
RAK
 70
     0
  0
APPID
  5
2A2
330
2BD
100
AcDbSymbolTableRecord
100
AcDbRegAppTableRecord
  2
ACAD_PSEXT
 70
     0
  0
APPID
  5
20
330
2BD
100
AcDbSymbolTableRecord
100
AcDbRegAppTableRecord
  2
DCO15
 70
     0
  0
APPID
  5
2B1
330
2BD
100
AcDbSymbolTableRecord
100
AcDbRegAppTableRecord
  2
AcLayerTools
 70
     0
  0
APPID
  5
1F
330
2BD
100
AcDbSymbolTableRecord
100
AcDbRegAppTableRecord
  2
AcDbBlockRepETag
 70
     0
  0
APPID
  5
157
330
2BD
100
AcDbSymbolTableRecord
100
AcDbRegAppTableRecord
  2
AEC_XDATA_BOUND_SPACE
 70
     0
  0
ENDTAB
  0
TABLE
  2
DIMSTYLE
  5
2BE
330
0
100
AcDbSymbolTable
 70
     3
100
AcDbDimStyleTable
 71
     3
340
2BF
340
2C0
340
2C1
  0
DIMSTYLE
105
2C0
330
2BE
100
AcDbSymbolTableRecord
100
AcDbDimStyleTableRecord
  2
500
 70
     0
 41
30.0
 42
43.0
 43
0.0
 44
13.0
 45
0.5
 46
12.0
 73
     0
 74
     0
 75
     1
 76
     1
 78
    12
140
80.0
141
0.0
145
1.0
147
0.0
172
     1
174
     1
176
     1
177
     1
178
   140
271
     1
272
     1
279
     2
340
130
341
14F
342
14F
  0
DIMSTYLE
105
2C1
330
2BE
100
AcDbSymbolTableRecord
100
AcDbDimStyleTableRecord
  2
Standard
 70
     0
340
2B4
  0
DIMSTYLE
105
2BF
330
2BE
100
AcDbSymbolTableRecord
100
AcDbDimStyleTableRecord
  2
500-RU
 70
     0
 41
30.0
 42
43.0
 43
0.0
 44
13.0
 45
0.5
 46
12.0
 73
     0
 74
     0
 75
     1
 76
     1
 78
    12
140
80.0
141
0.0
144
10.0
145
1.0
147
0.0
172
     1
174
     1
176
     1
177
     1
178
   140
271
     1
272
     1
279
     2
340
130
341
14F
342
14F
  0
ENDTAB
  0
TABLE
  2
BLOCK_RECORD
  5
1
330
0
100
AcDbSymbolTable
 70
     1
  0
BLOCK_RECORD
  5
2
102
{ACAD_XDICTIONARY
360
3
102
}
330
1
100
AcDbSymbolTableRecord
100
AcDbBlockTableRecord
  2
*Model_Space
340
29D
  0
BLOCK_RECORD
  5
2A3
330
1
100
AcDbSymbolTableRecord
100
AcDbBlockTableRecord
  2
*Paper_Space
340
2AA
  0
BLOCK_RECORD
  5
14F
102
{ACAD_XDICTIONARY
360
150
102
}
330
1
100
AcDbSymbolTableRecord
100
AcDbBlockTableRecord
  2
B-DIM
340
0
102
{BLKREFS
331
28B
331
28C
331
28F
331
290
331
295
331
296
331
299
331
29A
331
14E
331
158
331
15B
331
15C
331
161
331
162
331
165
331
166
102
}
  0
ENDTAB
  0
ENDSEC
  0
SECTION
  2
BLOCKS
  0
BLOCK
  5
5
330
2
100
AcDbEntity
  8
0
100
AcDbBlockBegin
  2
*Model_Space
 70
     0
 10
0.0
 20
0.0
 30
0.0
  3
*Model_Space
  1

  0
ENDBLK
  5
29C
330
2
100
AcDbEntity
  8
0
100
AcDbBlockEnd
  0
BLOCK
  5
2A4
330
2A3
100
AcDbEntity
 67
     1
  8
0
100
AcDbBlockBegin
  2
*Paper_Space
 70
     0
 10
0.0
 20
0.0
 30
0.0
  3
*Paper_Space
  1

  0
ENDBLK
  5
2A9
330
2A3
100
AcDbEntity
 67
     1
  8
0
100
AcDbBlockEnd
  0
BLOCK
  5
152
330
14F
100
AcDbEntity
  8
0
100
AcDbBlockBegin
  2
B-DIM
 70
     0
 10
0.0
 20
0.0
 30
0.0
  3
B-DIM
  1

  0
LINE
  5
153
330
14F
100
AcDbEntity
  8
0
 62
     1
100
AcDbLine
 10
0.000000000000091
 20
-1.1
 30
0.0
 11
0.000000000000091
 21
1.1
 31
0.0
  0
LWPOLYLINE
  5
154
330
14F
100
AcDbEntity
  8
0
 62
     1
100
AcDbPolyline
 90
        2
 70
     0
 43
0.3
 10
-0.7071067811864851
 20
-0.7071067811864851
 10
0.707106781186576
 20
0.707106781186576
  0
LINE
  5
155
330
14F
100
AcDbEntity
  8
0
 62
     1
100
AcDbLine
 10
1.20000000000009
 20
0.0
 30
0.0
 11
-1.199999999999909
 21
0.0
 31
0.0
  0
ENDBLK
  5
156
330
14F
100
AcDbEntity
  8
0
100
AcDbBlockEnd
  0
ENDSEC
  0
SECTION
  2
ENTITIES
  0
TEXT
  5
10
330
2
100
AcDbEntity
  8
0Napisy-PL
370
     5
100
AcDbText
 10
216666.4297817526
 20
141116.3055269018
 30
0.0
 40
150.0
  1
"DOM W GAURACH 2"
  7
AVA
100
AcDbText
  0
LWPOLYLINE
  5
16
330
2
100
AcDbEntity
  8
RAMKI-A4
370
     5
100
AcDbPolyline
 90
        4
 70
     1
 43
0.0
 10
215187.2000545948
 20
127657.5157057546
 10
215187.2000545948
 20
141677.5157057546
 10
225387.2000545948
 20
141677.5157057546
 10
225387.2000545948
 20
127657.5157057546
  0
MTEXT
  5
1A
102
{ACAD_XDICTIONARY
360
32E
102
}
330
2
100
AcDbEntity
  8
0Napisy
100
AcDbMText
 10
216765.396492656
 20
140932.3689550166
 30
0.0
 40
150.0
 41
0.0
 71
     1
 72
     5
  1
{\fArial|b0|i0|c238|p34;MO\U+017BNA WKLEI\U+0106 DO PROJEKTU ZAGOSPODAROWANIA TERENU}
  7
ARIAL
 73
     1
 44
1.0
1001
AcDbBlockRepETag
1070
     1
1071
      383
1005
1A
1001
DCO15
1071
        1
1071
        1
1000
_tabelka_-_inform_i_etykiety_Link1
1004
19000000
1000
_tabelka_Arial151
1001
ACAD
1000
MTEXTBEGIN
1070
    73
1070
     1
1070
    44
1040
1.0
1070
    74
1070
     0
1000
MTEXTEND
  0
MTEXT
  5
21
330
2
100
AcDbEntity
  8
0Napisy
100
AcDbMText
 10
216789.6764640862
 20
128621.06909775
 30
0.0
 40
100.0
 41
0.0
 71
     1
 72
     5
  1
{\fArial|b0|i0|c238|p34;OBRYS  BUDYNKU}
  7
ARIAL
 73
     1
 44
1.0
1001
AcDbBlockRepETag
1070
     1
1071
      383
1005
1A
1001
DCO15
1071
        1
1071
        1
1000
_tabelka_-_inform_i_etykiety_Link1
1004
1A000000
1000
_tabelka_Arial151
1001
ACAD
1000
MTEXTBEGIN
1070
    73
1070
     1
1070
    44
1040
1.0
1070
    74
1070
     0
1000
MTEXTEND
  0
MTEXT
  5
22
330
2
100
AcDbEntity
  8
0Napisy
100
AcDbMText
 10
216789.6764640862
 20
128371.0690977501
 30
0.0
 40
100.0
 41
0.0
 71
     1
 72
     5
  1
{\fArial|b0|i0|c238|p34;Skala:}
  7
ARIAL
 73
     1
 44
1.0
1001
AcDbBlockRepETag
1070
     1
1071
      383
1005
1A
1001
DCO15
1071
        1
1071
        1
1000
_tabelka_-_inform_i_etykiety_Link1
1004
08000000
1000
_tabelka_Arial151
1001
ACAD
1000
MTEXTBEGIN
1070
    73
1070
     1
1070
    44
1040
1.0
1070
    74
1070
     0
1000
MTEXTEND
  0
TEXT
  5
23
330
2
100
AcDbEntity
  8
0Napisy
100
AcDbText
 10
217457.3675813689
 20
128269.3637771498
 30
0.0
 40
100.0
  1
1:500
  7
ARIAL
100
AcDbText
1001
AcDbBlockRepETag
1070
     1
1071
      383
1005
1A
1001
DCO15
1071
        1
1071
        1
1000
_tabelka_-_inform_i_etykiety_Link1
1004
08000000
1000
_tabelka_Arial151
  0
LINE
  5
24
330
2
100
AcDbEntity
  8
0Napisy
  6
HIDDEN
 62
     1
 48
8.0
370
     5
100
AcDbLine
 10
220327.4240487687
 20
132099.1123474394
 30
0.0
 11
220327.4240487687
 21
138274.630907844
 31
0.0
  0
MTEXT
  5
26
102
{ACAD_XDICTIONARY
360
330
102
}
330
2
100
AcDbEntity
  8
0Napisy
100
AcDbMText
 10
220140.1907007831
 20
132171.5385482787
 30
0.0
 40
100.0
 41
0.0
 71
     1
 72
     5
  1
{\fArial|b0|i0|c238|p34;O\U+015A ODBICIA LUSTRZANEGO}
  7
ARIAL
 11
0.0000000000000001
 21
1.0
 31
0.0
 73
     1
 44
1.0
1001
AcDbBlockRepETag
1070
     1
1071
      383
1005
0
1001
DCO15
1071
        1
1071
        1
1000
_tabelka_-_inform_i_etykiety_Link1
1004
1B000000
1000
_tabelka_Arial151
1001
ACAD
1000
MTEXTBEGIN
1070
    73
1070
     1
1070
    44
1040
1.0
1070
    74
1070
     0
1000
MTEXTEND
  0
HATCH
  5
27
330
2
100
AcDbEntity
  8
0
370
     5
100
AcDbHatch
 10
0.0
 20
0.0
 30
0.0
210
0.0
220
0.0
230
1.0
  2
SOLID
 70
     1
 71
     0
 91
        1
 92
        7
 72
     0
 73
     1
 93
       24
 10
218137.2245138185
 20
135479.1140360674
 10
218137.2245138185
 20
135419.1140360674
 10
218777.2245138184
 20
135419.1140360673
 10
218777.2245138185
 20
135742.9597071347
 10
218867.2245138185
 20
135832.9597071347
 10
218867.2245138186
 20
136005.2683649998
 10
218777.2245138186
 20
136095.2683649998
 10
218777.2245138186
 20
136419.1140360673
 10
217317.2245138186
 20
136419.1140360676
 10
217317.2245138186
 20
136359.1140360674
 10
216907.2245138185
 20
136359.1140360674
 10
216907.2245138185
 20
135479.1140360673
 10
216977.2245138185
 20
135479.1140360673
 10
216977.2245138185
 20
135539.1140360673
 10
216967.2245138185
 20
135539.1140360673
 10
216967.2245138185
 20
136299.1140360674
 10
217377.2245138186
 20
136299.1140360674
 10
217377.2245138186
 20
136359.1140360675
 10
218717.2245138186
 20
136359.1140360673
 10
218717.2245138186
 20
136070.4155512575
 10
218807.2245138185
 20
135980.4155512574
 10
218807.2245138185
 20
135857.8125208771
 10
218717.2245138185
 20
135767.8125208772
 10
218717.2245138185
 20
135479.1140360673
 97
        0
 75
     0
 76
     1
 47
4.012970194582159
 98
        1
 10
218395.0176652404
 20
135459.4075828653
1001
ACAD
1010
0.0
1020
0.0
1030
0.0
  0
HATCH
  5
28
330
2
100
AcDbEntity
  8
0
370
     5
100
AcDbHatch
 10
0.0
 20
0.0
 30
0.0
210
0.0
220
0.0
230
1.0
  2
SOLID
 70
     1
 71
     0
 91
        1
 92
        7
 72
     0
 73
     1
 93
        8
 10
217377.2245138184
 20
135479.1140360676
 10
217377.2245138184
 20
135539.1140360672
 10
217247.2245138185
 20
135539.1140360673
 10
217247.2245138186
 20
135479.1140360673
 10
217317.2245138184
 20
135479.1140360672
 10
217317.2245138184
 20
135419.1140360676
 10
217957.2245138185
 20
135419.1140360674
 10
217957.2245138185
 20
135479.1140360674
 97
        0
 75
     0
 76
     1
 47
2.81436709003111
 98
        1
 10
217620.9307762662
 20
135450.0185220017
1001
ACAD
1010
0.0
1020
0.0
1030
0.0
  0
LINE
  5
29
330
2
100
AcDbEntity
  8
0
370
     5
100
AcDbLine
 10
217317.2245138184
 20
135419.1140360676
 30
0.0
 11
218777.2245138184
 21
135419.1140360672
 31
0.0
  0
LINE
  5
2A
330
2
100
AcDbEntity
  8
0
370
     5
100
AcDbLine
 10
218777.2245138184
 20
135419.1140360672
 30
0.0
 11
218777.2245138185
 21
135742.9597071347
 31
0.0
  0
LINE
  5
2B
330
2
100
AcDbEntity
  8
0
370
     5
100
AcDbLine
 10
218777.2245138185
 20
135742.9597071347
 30
0.0
 11
218867.2245138185
 21
135832.9597071347
 31
0.0
  0
LINE
  5
2C
330
2
100
AcDbEntity
  8
0
370
     5
100
AcDbLine
 10
218867.2245138185
 20
135832.9597071347
 30
0.0
 11
218867.2245138185
 21
136005.2683649998
 31
0.0
  0
LINE
  5
2D
330
2
100
AcDbEntity
  8
0
370
     5
100
AcDbLine
 10
218867.2245138185
 20
136005.2683649998
 30
0.0
 11
218777.2245138186
 21
136095.2683649998
 31
0.0
  0
LINE
  5
2E
330
2
100
AcDbEntity
  8
0
370
     5
100
AcDbLine
 10
218777.2245138186
 20
136095.2683649998
 30
0.0
 11
218777.2245138186
 21
136419.1140360673
 31
0.0
  0
LINE
  5
2F
330
2
100
AcDbEntity
  8
0
370
     5
100
AcDbLine
 10
218777.2245138186
 20
136419.1140360673
 30
0.0
 11
217317.2245138186
 21
136419.1140360676
 31
0.0
  0
LINE
  5
30
330
2
100
AcDbEntity
  8
0
370
     5
100
AcDbLine
 10
217317.2245138186
 20
136419.1140360676
 30
0.0
 11
217317.2245138186
 21
136359.1140360674
 31
0.0
  0
LINE
  5
31
330
2
100
AcDbEntity
  8
0
370
     5
100
AcDbLine
 10
217317.2245138186
 20
136359.1140360674
 30
0.0
 11
216907.2245138185
 21
136359.1140360674
 31
0.0
  0
LINE
  5
32
330
2
100
AcDbEntity
  8
0
370
     5
100
AcDbLine
 10
216907.2245138185
 20
136359.1140360674
 30
0.0
 11
216907.2245138185
 21
135479.1140360673
 31
0.0
  0
LINE
  5
33
330
2
100
AcDbEntity
  8
0
370
     5
100
AcDbLine
 10
216907.2245138185
 20
135479.1140360673
 30
0.0
 11
217317.2245138184
 21
135479.1140360673
 31
0.0
  0
LINE
  5
34
330
2
100
AcDbEntity
  8
0
370
     5
100
AcDbLine
 10
217317.2245138184
 20
135479.1140360673
 30
0.0
 11
217317.2245138184
 21
135419.1140360676
 31
0.0
  0
LWPOLYLINE
  5
35
330
2
100
AcDbEntity
  8
0
370
     5
100
AcDbPolyline
 90
       12
 70
     1
 43
0.0
 10
217377.2245138184
 20
135479.1140360676
 10
218717.2245138184
 20
135479.1140360672
 10
218717.2245138185
 20
135767.8125208772
 10
218807.2245138185
 20
135857.8125208771
 10
218807.2245138185
 20
135980.4155512574
 10
218717.2245138186
 20
136070.4155512575
 10
218717.2245138186
 20
136359.1140360673
 10
217377.2245138186
 20
136359.1140360675
 10
217377.2245138186
 20
136299.1140360674
 10
216967.2245138185
 20
136299.1140360674
 10
216967.2245138185
 20
135539.1140360673
 10
217377.2245138184
 20
135539.1140360672
  0
ARC
  5
36
330
2
100
AcDbEntity
  8
0
370
     5
100
AcDbCircle
 10
218047.2245138184
 20
135934.2821684051
 30
0.0
 40
749.8385944337559
100
AcDbArc
 50
70.98251923075155
 51
109.0174807692484
  0
ARC
  5
37
330
2
100
AcDbEntity
  8
0
370
     5
100
AcDbCircle
 10
-217613.3651910045
 20
136523.8504724277
 30
0.0
 40
223.9653901831519
210
0.0
220
0.0
230
-1.0
100
AcDbArc
 50
147.8007079573148
 51
207.8815776051867
  0
ARC
  5
38
330
2
100
AcDbEntity
  8
0
370
     5
100
AcDbCircle
 10
-218481.0838366324
 20
136523.8504724277
 30
0.0
 40
223.96539018315
210
0.0
220
0.0
230
-1.0
100
AcDbArc
 50
332.1184223948133
 51
32.19929204268521
  0
ARC
  5
39
330
2
100
AcDbEntity
  8
0
370
     5
100
AcDbCircle
 10
-218480.4964703218
 20
136524.1140360676
 30
0.0
 40
223.3279350211841
210
0.0
220
0.0
230
-1.0
100
AcDbArc
 50
32.2223716679842
 51
40.27239551099056
  0
ARC
  5
3A
330
2
100
AcDbEntity
  8
0
370
     5
100
AcDbCircle
 10
218047.2245138184
 20
135934.2821684051
 30
0.0
 40
779.8385944337549
100
AcDbArc
 50
70.30020696308416
 51
109.6997930369158
  0
ARC
  5
3B
330
2
100
AcDbEntity
  8
0
370
     5
100
AcDbCircle
 10
-217613.9525573151
 20
136524.1140360676
 30
0.0
 40
223.3279350211826
210
0.0
220
0.0
230
-1.0
100
AcDbArc
 50
139.7276044890094
 51
147.7776283320158
  0
ARC
  5
3C
330
2
100
AcDbEntity
  8
0
370
     5
100
AcDbCircle
 10
-218047.2245138184
 20
135934.2821684051
 30
0.0
 40
749.8385944337537
210
0.0
220
0.0
230
-1.0
100
AcDbArc
 50
70.98251923075155
 51
109.0174807692484
  0
ARC
  5
3D
330
2
100
AcDbEntity
  8
0
370
     5
100
AcDbCircle
 10
-217609.7510532747
 20
136520.2794695608
 30
0.0
 40
229.0124431742099
210
0.0
220
0.0
230
-1.0
100
AcDbArc
 50
124.2250104153084
 51
139.6751275834079
  0
ARC
  5
3E
330
2
100
AcDbEntity
  8
0
370
     5
100
AcDbCircle
 10
-218047.2245138184
 20
135934.2821684051
 30
0.0
 40
779.8385944337544
210
0.0
220
0.0
230
-1.0
100
AcDbArc
 50
70.30020696308416
 51
109.6997930369158
  0
ARC
  5
3F
330
2
100
AcDbEntity
  8
0
370
     5
100
AcDbCircle
 10
218047.2245138184
 20
135934.2821684051
 30
0.0
 40
809.838594433755
100
AcDbArc
 50
69.32332290284953
 51
110.6766770971504
  0
ARC
  5
40
330
2
100
AcDbEntity
  8
0
370
     5
100
AcDbCircle
 10
-218480.4964703218
 20
136524.1140360676
 30
0.0
 40
223.327935021195
210
0.0
220
0.0
230
-1.0
100
AcDbArc
 50
48.72527514770268
 51
57.80379996402079
  0
ARC
  5
41
330
2
100
AcDbEntity
  8
0
370
     5
100
AcDbCircle
 10
218047.2245138184
 20
135934.2821684051
 30
0.0
 40
839.8385944337547
100
AcDbArc
 50
68.02433405144746
 51
111.9756659485525
  0
LINE
  5
42
330
2
100
AcDbEntity
  8
0
370
     5
100
AcDbLine
 10
216907.2245138185
 20
135419.1140360676
 30
0.0
 11
216907.2245138185
 21
135479.1140360676
 31
0.0
  0
LINE
  5
43
330
2
100
AcDbEntity
  8
0
370
     5
100
AcDbLine
 10
217317.2245138184
 20
135419.1140360676
 30
0.0
 11
216907.2245138185
 21
135419.1140360676
 31
0.0
  0
LINE
  5
44
330
2
100
AcDbEntity
  8
0
370
     5
100
AcDbLine
 10
217317.2245138184
 20
135419.1140360676
 30
0.0
 11
216907.2245138185
 21
135419.1140360676
 31
0.0
  0
LINE
  5
45
330
2
100
AcDbEntity
  8
0
370
     5
100
AcDbLine
 10
217317.2245138184
 20
135262.1140360676
 30
0.0
 11
217317.2245138184
 21
135419.1140360676
 31
0.0
  0
LINE
  5
46
330
2
100
AcDbEntity
  8
0
370
     5
100
AcDbLine
 10
216907.2245138185
 20
135262.1140360676
 30
0.0
 11
217317.2245138184
 21
135262.1140360676
 31
0.0
  0
LINE
  5
47
330
2
100
AcDbEntity
  8
0
370
     5
100
AcDbLine
 10
216907.2245138185
 20
135419.1140360676
 30
0.0
 11
216907.2245138185
 21
135262.1140360676
 31
0.0
  0
LINE
  5
48
330
2
100
AcDbEntity
  8
0
370
     5
100
AcDbLine
 10
217012.2245138184
 20
136479.1140360676
 30
0.0
 11
217232.2245138184
 21
136479.1140360676
 31
0.0
  0
LINE
  5
49
330
2
100
AcDbEntity
  8
0
370
     5
100
AcDbLine
 10
217012.2245138184
 20
136359.1140360674
 30
0.0
 11
217012.2245138184
 21
136479.1140360676
 31
0.0
  0
LINE
  5
4A
330
2
100
AcDbEntity
  8
0
370
     5
100
AcDbLine
 10
217212.2245138185
 20
136479.1140360676
 30
0.0
 11
217212.2245138185
 21
136439.1140360675
 31
0.0
  0
LINE
  5
4B
330
2
100
AcDbEntity
  8
0
370
     5
100
AcDbLine
 10
217212.2245138185
 20
136359.1140360675
 30
0.0
 11
217212.2245138185
 21
136479.1140360676
 31
0.0
  0
LINE
  5
4C
330
2
100
AcDbEntity
  8
0
370
     5
100
AcDbLine
 10
217232.2245138184
 20
136479.1140360676
 30
0.0
 11
217232.2245138184
 21
136359.1140360675
 31
0.0
  0
LINE
  5
4D
330
2
100
AcDbEntity
  8
0
370
     5
100
AcDbLine
 10
216992.2245138184
 20
136479.1140360676
 30
0.0
 11
216992.2245138184
 21
136359.1140360675
 31
0.0
  0
LINE
  5
4E
330
2
100
AcDbEntity
  8
0
370
     5
100
AcDbLine
 10
217012.2245138184
 20
136479.1140360676
 30
0.0
 11
216992.2245138184
 21
136479.1140360676
 31
0.0
  0
LINE
  5
4F
330
2
100
AcDbEntity
  8
0
370
     5
100
AcDbLine
 10
219117.2245138185
 20
136278.3999250195
 30
0.0
 11
219117.2245138185
 21
136431.3494974065
 31
0.0
  0
ARC
  5
50
330
2
100
AcDbEntity
  8
0
370
     5
100
AcDbCircle
 10
-218997.4438292455
 20
136612.3514322197
 30
0.0
 40
217.0463379163108
210
0.0
220
0.0
230
-1.0
100
AcDbArc
 50
236.5048169961268
 51
245.5658252884221
  0
LINE
  5
51
330
2
100
AcDbEntity
  8
0
370
     5
100
AcDbLine
 10
219087.2245138185
 20
136414.7443941858
 30
0.0
 11
219087.2245138185
 21
136290.7640057972
 31
0.0
  0
ARC
  5
52
330
2
100
AcDbEntity
  8
0
370
     5
100
AcDbCircle
 10
-218951.6020138184
 20
135919.1140360675
 30
0.0
 40
395.6225000000867
210
0.0
220
0.0
230
-1.0
100
AcDbArc
 50
110.0480363013973
 51
114.7486106758813
  0
LINE
  5
53
330
2
100
AcDbEntity
  8
0
370
     5
100
AcDbLine
 10
219147.2245138184
 20
136262.9875593287
 30
0.0
 11
219147.2245138184
 21
136455.0768415603
 31
0.0
  0
ARC
  5
54
330
2
100
AcDbEntity
  8
0
370
     5
100
AcDbCircle
 10
-219013.8513932468
 20
136592.8798828806
 30
0.0
 40
191.7760868516617
210
0.0
220
0.0
230
-1.0
100
AcDbArc
 50
225.9358978542043
 51
237.3823488389313
  0
LINE
  5
55
330
2
100
AcDbEntity
  8
0
370
     5
100
AcDbLine
 10
219117.2245138185
 20
136431.3494974065
 30
0.0
 11
219117.2245138185
 21
136278.3999250195
 31
0.0
  0
LINE
  5
56
330
2
100
AcDbEntity
  8
0
370
     5
100
AcDbLine
 10
219177.2245138184
 20
136244.093496957
 30
0.0
 11
219177.2245138184
 21
136492.654508429
 31
0.0
  0
ARC
  5
57
330
2
100
AcDbEntity
  8
0
370
     5
100
AcDbCircle
 10
-219005.131712366
 20
136599.2801681308
 30
0.0
 40
202.4474342109817
210
0.0
220
0.0
230
-1.0
100
AcDbArc
 50
211.7816237914006
 51
225.4223668413422
  0
LINE
  5
58
330
2
100
AcDbEntity
  8
0
370
     5
100
AcDbLine
 10
219147.2245138184
 20
136455.0768415603
 30
0.0
 11
219147.2245138184
 21
136262.9875593287
 31
0.0
  0
ARC
  5
59
330
2
100
AcDbEntity
  8
0
370
     5
100
AcDbCircle
 10
-218951.6020138185
 20
135919.1140360676
 30
0.0
 40
395.6224999999506
210
0.0
220
0.0
230
-1.0
100
AcDbArc
 50
119.6346480600818
 51
124.770969937732
  0
ARC
  5
5A
330
2
100
AcDbEntity
  8
0
370
     5
100
AcDbCircle
 10
218951.6020138183
 20
135919.1140360678
 30
0.0
 40
395.6225000002205
100
AcDbArc
 50
290.0480363013974
 51
294.7486106758813
  0
LINE
  5
5B
330
2
100
AcDbEntity
  8
0
370
     5
100
AcDbLine
 10
219087.2245138185
 20
135423.7699735961
 30
0.0
 11
219087.2245138185
 21
135547.464066338
 31
0.0
  0
LINE
  5
5C
330
2
100
AcDbEntity
  8
0
370
     5
100
AcDbLine
 10
219117.2245138185
 20
135559.8281471156
 30
0.0
 11
219117.3562612395
 21
135413.1149699288
 31
0.0
  0
LINE
  5
5D
330
2
100
AcDbEntity
  8
0
370
     5
100
AcDbLine
 10
219117.3562612395
 20
135413.1149699288
 30
0.0
 11
219117.2245138185
 21
135559.8281471156
 31
0.0
  0
ARC
  5
5E
330
2
100
AcDbEntity
  8
0
370
     5
100
AcDbCircle
 10
219040.1276207652
 20
135234.668441529
 30
0.0
 40
194.4413186734335
100
AcDbArc
 50
56.57857543122404
 51
66.59785490400667
  0
LINE
  5
5F
330
2
100
AcDbEntity
  8
0
370
     5
100
AcDbLine
 10
219147.2245138184
 20
135575.2405128064
 30
0.0
 11
219147.2245138184
 21
135396.9573256394
 31
0.0
  0
LINE
  5
60
330
2
100
AcDbEntity
  8
0
370
     5
100
AcDbLine
 10
219147.2245138184
 20
135396.9573256394
 30
0.0
 11
219147.2245138184
 21
135575.2405128064
 31
0.0
  0
ARC
  5
61
330
2
100
AcDbEntity
  8
0
370
     5
100
AcDbCircle
 10
219033.487635591
 20
135221.5249350628
 30
0.0
 40
209.0755871265642
100
AcDbArc
 50
46.63870691979948
 51
57.04372517456886
  0
LINE
  5
62
330
2
100
AcDbEntity
  8
0
370
     5
100
AcDbLine
 10
219177.2245138184
 20
135594.1345751781
 30
0.0
 11
219177.0382034014
 21
135373.5309731457
 31
0.0
  0
ARC
  5
63
330
2
100
AcDbEntity
  8
0
370
     5
100
AcDbCircle
 10
218951.6020138185
 20
135919.1140360676
 30
0.0
 40
395.6224999999942
100
AcDbArc
 50
47.75897743578283
 51
69.95196369860263
  0
LINE
  5
64
330
2
100
AcDbEntity
  8
0
370
     5
100
AcDbLine
 10
219087.2245138185
 20
136290.7640057972
 30
0.0
 11
219087.2245138185
 21
136204.1124571158
 31
0.0
  0
ARC
  5
65
330
2
100
AcDbEntity
  8
0
370
     5
100
AcDbCircle
 10
-218951.6020138185
 20
135919.1140360676
 30
0.0
 40
315.6224999999959
210
0.0
220
0.0
230
-1.0
100
AcDbArc
 50
115.4484247405152
 51
244.5515752594848
  0
LINE
  5
66
330
2
100
AcDbEntity
  8
0
370
     5
100
AcDbLine
 10
219087.2245138185
 20
135634.1156150193
 30
0.0
 11
219087.2245138185
 21
135547.464066338
 31
0.0
  0
ARC
  5
67
330
2
100
AcDbEntity
  8
0
370
     5
100
AcDbCircle
 10
218951.6020138185
 20
135919.1140360676
 30
0.0
 40
395.6224999999956
100
AcDbArc
 50
290.0480363013974
 51
312.2410225642171
  0
ARC
  5
68
330
2
100
AcDbEntity
  8
0
370
     5
100
AcDbCircle
 10
218951.6020138185
 20
135919.1140360676
 30
0.0
 40
335.6224999999958
100
AcDbArc
 50
312.2410225642171
 51
47.75897743578283
  0
3DFACE
  5
69
330
2
100
AcDbEntity
  8
0
370
     5
100
AcDbFace
 10
219177.2245138184
 20
136167.5832494522
 30
60.0
 11
219195.3873741725
 21
136149.7894803248
 31
60.0
 12
219238.9694392047
 22
136191.0278557478
 32
0.0
 13
219217.5595628691
 23
136212.0026575762
 33
0.0
  0
3DFACE
  5
6A
330
2
100
AcDbEntity
  8
0
370
     5
100
AcDbFace
 10
219195.3873741725
 20
136149.7894803248
 30
60.0
 11
219212.1510364533
 21
136130.671757057
 31
60.0
 12
219258.7299796353
 22
136168.4924134771
 32
0.0
 13
219238.9694392047
 23
136191.0278557478
 33
0.0
  0
3DFACE
  5
6B
330
2
100
AcDbEntity
  8
0
370
     5
100
AcDbFace
 10
219212.1510364533
 20
136130.671757057
 30
60.0
 11
219227.4192861713
 21
136110.3398051942
 31
60.0
 12
219276.7277691877
 22
136144.5256721953
 32
0.0
 13
219258.7299796353
 23
136168.4924134771
 33
0.0
  0
3DFACE
  5
6C
330
2
100
AcDbEntity
  8
0
370
     5
100
AcDbFace
 10
219227.4192861713
 20
136110.3398051942
 30
60.0
 11
219241.1044917085
 21
136088.9103193065
 31
60.0
 12
219292.8595101397
 22
136119.2651882272
 32
0.0
 13
219276.7277691877
 23
136144.5256721953
 33
0.0
  0
3DFACE
  5
6D
330
2
100
AcDbEntity
  8
0
370
     5
100
AcDbFace
 10
219241.1044917085
 20
136088.9103193065
 30
60.0
 11
219253.1281072769
 21
136066.5062932248
 31
60.0
 12
219307.0326148934
 22
136092.8559432913
 32
0.0
 13
219292.8595101397
 23
136119.2651882272
 33
0.0
  0
3DFACE
  5
6E
330
2
100
AcDbEntity
  8
0
370
     5
100
AcDbFace
 10
219253.1281072769
 20
136066.5062932248
 30
60.0
 11
219263.4211237297
 21
136043.2563141214
 31
60.0
 12
219319.1657373795
 22
136065.449512382
 32
0.0
 13
219307.0326148934
 23
136092.8559432913
 33
0.0
  0
3DFACE
  5
6F
330
2
100
AcDbEntity
  8
0
370
     5
100
AcDbFace
 10
219263.4211237297
 20
136043.2563141214
 30
60.0
 11
219271.9244646367
 21
136019.2938244882
 31
60.0
 12
219329.1892399397
 22
136037.2031938101
 32
0.0
 13
219319.1657373795
 23
136065.449512382
 33
0.0
  0
3DFACE
  5
70
330
2
100
AcDbEntity
  8
0
370
     5
100
AcDbFace
 10
219271.9244646367
 20
136019.2938244882
 30
60.0
 11
219278.5893253521
 21
135994.7563562477
 31
60.0
 12
219337.04559301
 22
136008.2791063935
 32
0.0
 13
219329.1892399397
 23
136037.2031938101
 33
0.0
  0
3DFACE
  5
71
330
2
100
AcDbEntity
  8
0
370
     5
100
AcDbFace
 10
219278.5893253521
 20
135994.7563562477
 30
60.0
 11
219283.3774531264
 21
135969.7847413936
 31
60.0
 12
219342.68970531
 22
135978.8432589827
 32
0.0
 13
219337.04559301
 23
136008.2791063935
 33
0.0
  0
3DFACE
  5
72
330
2
100
AcDbEntity
  8
0
370
     5
100
AcDbFace
 10
219283.3774531264
 20
135969.7847413936
 30
60.0
 11
219286.2613666576
 21
135944.5223036895
 31
60.0
 12
219346.0891826423
 22
135949.0645976577
 32
0.0
 13
219342.68970531
 23
135978.8432589827
 33
0.0
  0
3DFACE
  5
73
330
2
100
AcDbEntity
  8
0
370
     5
100
AcDbFace
 10
219286.2613666576
 20
135944.5223036895
 30
60.0
 11
219287.2245138184
 21
135919.1140360676
 31
60.0
 12
219347.2245138185
 22
135919.1140360676
 32
0.0
 13
219346.0891826423
 23
135949.0645976577
 33
0.0
  0
3DFACE
  5
74
330
2
100
AcDbEntity
  8
0
370
     5
100
AcDbFace
 10
219287.2245138184
 20
135919.1140360676
 30
60.0
 11
219286.2613666576
 21
135893.7057684455
 31
60.0
 12
219346.0891826423
 22
135889.1634744774
 32
0.0
 13
219347.2245138185
 23
135919.1140360676
 33
0.0
  0
3DFACE
  5
75
330
2
100
AcDbEntity
  8
0
370
     5
100
AcDbFace
 10
219286.2613666576
 20
135893.7057684455
 30
60.0
 11
219283.3774531264
 21
135868.4433307415
 31
60.0
 12
219342.68970531
 22
135859.3848131524
 32
0.0
 13
219346.0891826423
 23
135889.1634744774
 33
0.0
  0
3DFACE
  5
76
330
2
100
AcDbEntity
  8
0
370
     5
100
AcDbFace
 10
219283.3774531264
 20
135868.4433307415
 30
60.0
 11
219278.5893253521
 21
135843.4717158874
 31
60.0
 12
219337.04559301
 22
135829.9489657416
 32
0.0
 13
219342.68970531
 23
135859.3848131524
 33
0.0
  0
3DFACE
  5
77
330
2
100
AcDbEntity
  8
0
370
     5
100
AcDbFace
 10
219278.5893253521
 20
135843.4717158874
 30
60.0
 11
219271.9244646367
 21
135818.934247647
 31
60.0
 12
219329.1892399397
 22
135801.0248783251
 32
0.0
 13
219337.04559301
 23
135829.9489657416
 33
0.0
  0
3DFACE
  5
78
330
2
100
AcDbEntity
  8
0
370
     5
100
AcDbFace
 10
219271.9244646367
 20
135818.934247647
 30
60.0
 11
219263.4211237297
 21
135794.9717580137
 31
60.0
 12
219319.1657373795
 22
135772.7785597531
 32
0.0
 13
219329.1892399397
 23
135801.0248783251
 33
0.0
  0
3DFACE
  5
79
330
2
100
AcDbEntity
  8
0
370
     5
100
AcDbFace
 10
219263.4211237297
 20
135794.9717580137
 30
60.0
 11
219253.1281072769
 21
135771.7217789103
 31
60.0
 12
219307.0326148934
 22
135745.3721288438
 32
0.0
 13
219319.1657373795
 23
135772.7785597531
 33
0.0
  0
3DFACE
  5
7A
330
2
100
AcDbEntity
  8
0
370
     5
100
AcDbFace
 10
219253.1281072769
 20
135771.7217789103
 30
60.0
 11
219241.1044917085
 21
135749.3177528286
 31
60.0
 12
219292.8595101397
 22
135718.9628839079
 32
0.0
 13
219307.0326148934
 23
135745.3721288438
 33
0.0
  0
3DFACE
  5
7B
330
2
100
AcDbEntity
  8
0
370
     5
100
AcDbFace
 10
219241.1044917085
 20
135749.3177528286
 30
60.0
 11
219227.4192861713
 21
135727.888266941
 31
60.0
 12
219276.7277691877
 22
135693.7023999398
 32
0.0
 13
219292.8595101397
 23
135718.9628839079
 33
0.0
  0
3DFACE
  5
7C
330
2
100
AcDbEntity
  8
0
370
     5
100
AcDbFace
 10
219227.4192861713
 20
135727.888266941
 30
60.0
 11
219212.1510364533
 21
135707.5563150781
 31
60.0
 12
219258.7299796353
 22
135669.735658658
 32
0.0
 13
219276.7277691877
 23
135693.7023999398
 33
0.0
  0
3DFACE
  5
7D
330
2
100
AcDbEntity
  8
0
370
     5
100
AcDbFace
 10
219212.1510364533
 20
135707.5563150781
 30
60.0
 11
219195.3873741725
 21
135688.4385918103
 31
60.0
 12
219238.9694392047
 22
135647.2002163873
 32
0.0
 13
219258.7299796353
 23
135669.735658658
 33
0.0
  0
3DFACE
  5
7E
330
2
100
AcDbEntity
  8
0
370
     5
100
AcDbFace
 10
219195.3873741725
 20
135688.4385918103
 30
60.0
 11
219177.2245138184
 21
135670.6448226829
 31
60.0
 12
219217.5595628691
 22
135626.2254145589
 32
0.0
 13
219238.9694392047
 23
135647.2002163873
 33
0.0
  0
LINE
  5
7F
330
2
100
AcDbEntity
  8
0
370
     5
100
AcDbLine
 10
219196.0976759636
 20
136531.2199956665
 30
0.0
 11
219177.2401091301
 21
136537.8827408306
 31
0.0
  0
ARC
  5
80
330
2
100
AcDbEntity
  8
0
370
     5
100
AcDbCircle
 10
-219008.4137849911
 20
136597.5323650195
 30
0.0
 40
179.0541967902045
210
0.0
220
0.0
230
-1.0
100
AcDbArc
 50
199.4593053224771
 51
265.1698856168938
  0
LINE
  5
81
330
2
100
AcDbEntity
  8
0
370
     5
100
AcDbLine
 10
219023.4904319019
 20
136419.1140360673
 30
0.0
 11
218777.2245138186
 21
136419.1140360673
 31
0.0
  0
LINE
  5
82
330
2
100
AcDbEntity
  8
0
370
     5
100
AcDbLine
 10
218777.2245138186
 20
136399.1140360673
 30
0.0
 11
219024.3115834423
 21
136399.1140360673
 31
0.0
  0
ARC
  5
83
330
2
100
AcDbEntity
  8
0
370
     5
100
AcDbCircle
 10
219008.4137849911
 20
136597.5323650195
 30
0.0
 40
199.0541967902013
100
AcDbArc
 50
274.5809027189758
 51
340.5406946775229
  0
3DFACE
  5
84
330
2
100
AcDbEntity
  8
0
370
     5
100
AcDbFace
 10
219192.315883266
 20
136521.3576217652
 30
0.0
 11
219196.0976759636
 21
136531.2199956665
 31
0.0
 12
219196.0976759636
 22
136531.2199956665
 32
30.0
 13
219192.315883266
 23
136521.3576217652
 33
31.04207298374534
  0
3DFACE
  5
85
330
2
100
AcDbEntity
  8
0
370
     5
100
AcDbFace
 10
219180.7997761413
 20
136498.0052666244
 30
0.0
 11
219192.315883266
 21
136521.3576217652
 31
0.0
 12
219192.315883266
 22
136521.3576217652
 32
31.04207298374534
 13
219180.7997761413
 23
136498.0052666244
 33
34.21533632004038
  0
3DFACE
  5
86
330
2
100
AcDbEntity
  8
0
370
     5
100
AcDbFace
 10
219166.3340969136
 20
136476.3558477313
 30
0.0
 11
219180.7997761413
 21
136498.0052666244
 31
0.0
 12
219180.7997761413
 22
136498.0052666244
 32
34.21533632004038
 13
219166.3340969136
 23
136476.3558477313
 33
38.20135425394925
  0
3DFACE
  5
87
330
2
100
AcDbEntity
  8
0
370
     5
100
AcDbFace
 10
219149.166357365
 20
136456.7797926455
 30
0.0
 11
219166.3340969136
 21
136476.3558477313
 31
0.0
 12
219166.3340969136
 22
136476.3558477313
 32
38.20135425394925
 13
219149.166357365
 23
136456.7797926455
 33
42.93192491348981
  0
3DFACE
  5
88
330
2
100
AcDbEntity
  8
0
370
     5
100
AcDbFace
 10
219129.5903022792
 20
136439.612053097
 30
0.0
 11
219149.166357365
 21
136456.7797926455
 31
0.0
 12
219149.166357365
 22
136456.7797926455
 32
42.93192491348981
 13
219129.5903022792
 23
136439.612053097
 33
48.32610692311535
  0
3DFACE
  5
89
330
2
100
AcDbEntity
  8
0
370
     5
100
AcDbFace
 10
219107.9408833862
 20
136425.1463738693
 30
0.0
 11
219129.5903022792
 21
136439.612053097
 31
0.0
 12
219129.5903022792
 22
136439.612053097
 32
48.32610692311535
 13
219107.9408833862
 23
136425.1463738693
 33
54.29160433309139
  0
3DFACE
  5
8A
330
2
100
AcDbEntity
  8
0
370
     5
100
AcDbFace
 10
219087.2245138185
 20
136414.7443941858
 30
0.0
 11
219107.9408833862
 21
136425.1463738693
 31
0.0
 12
219107.9408833862
 22
136425.1463738693
 32
54.29160433309139
 13
219087.2245138185
 23
136414.7443941858
 33
60.0
  0
3DFACE
  5
8B
330
2
100
AcDbEntity
  8
0
370
     5
100
AcDbFace
 10
219087.2245138185
 20
136436.7552696051
 30
60.0
 11
219087.2245138185
 21
136436.7552696051
 31
0.0
 12
219087.2245138185
 22
136414.7443941858
 32
0.0
 13
219087.2245138185
 23
136414.7443941858
 33
60.0
  0
3DFACE
  5
8C
330
2
100
AcDbEntity
  8
0
370
     5
100
AcDbFace
 10
219105.2177923126
 20
136446.9023894015
 30
0.0
 11
219087.2245138185
 21
136436.7552696051
 31
0.0
 12
219087.2245138185
 22
136436.7552696051
 32
60.0
 13
219105.2177923126
 23
136446.9023894015
 33
55.04195208269412
  0
3DFACE
  5
8D
330
2
100
AcDbEntity
  8
0
370
     5
100
AcDbFace
 10
219125.6693477171
 20
136462.212232009
 30
0.0
 11
219105.2177923126
 21
136446.9023894015
 31
0.0
 12
219105.2177923126
 22
136446.9023894015
 32
55.04195208269412
 13
219125.6693477171
 23
136462.212232009
 33
49.40652595887693
  0
3DFACE
  5
8E
330
2
100
AcDbEntity
  8
0
370
     5
100
AcDbFace
 10
219143.7339180016
 20
136480.2768022935
 30
0.0
 11
219125.6693477171
 21
136462.212232009
 31
0.0
 12
219125.6693477171
 22
136462.212232009
 32
49.40652595887693
 13
219143.7339180016
 23
136480.2768022935
 33
44.42883358861782
  0
3DFACE
  5
8F
330
2
100
AcDbEntity
  8
0
370
     5
100
AcDbFace
 10
219159.0437606091
 20
136500.728357698
 30
0.0
 11
219143.7339180016
 21
136480.2768022935
 31
0.0
 12
219143.7339180016
 22
136480.2768022935
 32
44.42883358861782
 13
219159.0437606091
 23
136500.728357698
 33
40.21020643409582
  0
3DFACE
  5
90
330
2
100
AcDbEntity
  8
0
370
     5
100
AcDbFace
 10
219171.2872112939
 20
136523.1505635319
 30
0.0
 11
219159.0437606091
 21
136500.728357698
 31
0.0
 12
219159.0437606091
 22
136500.728357698
 32
40.21020643409582
 13
219171.2872112939
 23
136523.1505635319
 33
36.8365235786609
  0
3DFACE
  5
91
330
2
100
AcDbEntity
  8
0
370
     5
100
AcDbFace
 10
219177.2401091301
 20
136537.8827408306
 30
0.0
 11
219171.2872112939
 21
136523.1505635319
 31
0.0
 12
219171.2872112939
 22
136523.1505635319
 32
36.8365235786609
 13
219177.2401091301
 23
136537.8827408306
 33
35.19620257056037
  0
3DFACE
  5
92
330
2
100
AcDbEntity
  8
0
370
     5
100
AcDbFace
 10
219196.0976759636
 20
136531.2199956665
 30
0.0
 11
219177.2401091301
 21
136537.8827408306
 31
0.0
 12
219177.2401091301
 22
136537.8827408306
 32
35.19620257056037
 13
219196.0976759636
 23
136531.2199956665
 33
30.0
  0
3DFACE
  5
93
330
2
100
AcDbEntity
  8
0
370
     5
100
AcDbFace
 10
219196.0976759636
 20
136531.2199956665
 30
30.0
 11
219177.2401091301
 21
136537.8827408306
 31
35.19620257056037
 12
219171.2872112939
 22
136523.1505635319
 32
36.8365235786609
 13
219171.2872112939
 23
136523.1505635319
 33
36.8365235786609
 70
    12
  0
3DFACE
  5
94
330
2
100
AcDbEntity
  8
0
370
     5
100
AcDbFace
 10
219196.0976759636
 20
136531.2199956665
 30
30.0
 11
219171.2872112939
 21
136523.1505635319
 31
36.8365235786609
 12
219159.0437606091
 22
136500.728357698
 32
40.21020643409582
 13
219159.0437606091
 23
136500.728357698
 33
40.21020643409582
 70
    13
  0
3DFACE
  5
95
330
2
100
AcDbEntity
  8
0
370
     5
100
AcDbFace
 10
219196.0976759636
 20
136531.2199956665
 30
30.0
 11
219159.0437606091
 21
136500.728357698
 31
40.21020643409582
 12
219143.7339180016
 22
136480.2768022935
 32
44.42883358861782
 13
219143.7339180016
 23
136480.2768022935
 33
44.42883358861782
 70
    13
  0
3DFACE
  5
96
330
2
100
AcDbEntity
  8
0
370
     5
100
AcDbFace
 10
219125.6693477171
 20
136462.212232009
 30
49.40652595887693
 11
219192.315883266
 21
136521.3576217652
 31
31.04207298374534
 12
219196.0976759636
 22
136531.2199956665
 32
30.0
 13
219143.7339180016
 23
136480.2768022935
 33
44.42883358861782
 70
     5
  0
3DFACE
  5
97
330
2
100
AcDbEntity
  8
0
370
     5
100
AcDbFace
 10
219180.7997761413
 20
136498.0052666244
 30
34.21533632004038
 11
219192.315883266
 21
136521.3576217652
 31
31.04207298374534
 12
219125.6693477171
 22
136462.212232009
 32
49.40652595887693
 13
219125.6693477171
 23
136462.212232009
 33
49.40652595887693
 70
    14
  0
3DFACE
  5
98
330
2
100
AcDbEntity
  8
0
370
     5
100
AcDbFace
 10
219105.2177923126
 20
136446.9023894015
 30
55.04195208269412
 11
219166.3340969136
 21
136476.3558477313
 31
38.20135425394925
 12
219180.7997761413
 22
136498.0052666244
 32
34.21533632004038
 13
219125.6693477171
 23
136462.212232009
 33
49.40652595887693
 70
     5
  0
3DFACE
  5
99
330
2
100
AcDbEntity
  8
0
370
     5
100
AcDbFace
 10
219087.2245138185
 20
136414.7443941858
 30
60.0
 11
219107.9408833862
 21
136425.1463738693
 31
54.29160433309139
 12
219105.2177923126
 22
136446.9023894015
 32
55.04195208269412
 13
219087.2245138185
 23
136436.7552696051
 33
60.0
 70
     2
  0
3DFACE
  5
9A
330
2
100
AcDbEntity
  8
0
370
     5
100
AcDbFace
 10
219107.9408833862
 20
136425.1463738693
 30
54.29160433309139
 11
219129.5903022792
 21
136439.612053097
 31
48.32610692311535
 12
219166.3340969136
 22
136476.3558477313
 32
38.20135425394925
 13
219105.2177923126
 23
136446.9023894015
 33
55.04195208269412
 70
    14
  0
3DFACE
  5
9B
330
2
100
AcDbEntity
  8
0
370
     5
100
AcDbFace
 10
219149.166357365
 20
136456.7797926455
 30
42.93192491348981
 11
219166.3340969136
 21
136476.3558477313
 31
38.20135425394925
 12
219129.5903022792
 22
136439.612053097
 32
48.32610692311535
 13
219129.5903022792
 23
136439.612053097
 33
48.32610692311535
 70
     2
  0
3DFACE
  5
9C
330
2
100
AcDbEntity
  8
0
370
     5
100
AcDbFace
 10
219087.2245138185
 20
136414.7443941858
 30
0.0
 11
219087.2245138185
 21
136436.7552696051
 31
0.0
 12
219105.2177923126
 22
136446.9023894015
 32
0.0
 13
219105.2177923126
 23
136446.9023894015
 33
0.0
 70
    12
  0
3DFACE
  5
9D
330
2
100
AcDbEntity
  8
0
370
     5
100
AcDbFace
 10
219087.2245138185
 20
136414.7443941858
 30
0.0
 11
219105.2177923126
 21
136446.9023894015
 31
0.0
 12
219125.6693477171
 22
136462.212232009
 32
0.0
 13
219125.6693477171
 23
136462.212232009
 33
0.0
 70
    13
  0
3DFACE
  5
9E
330
2
100
AcDbEntity
  8
0
370
     5
100
AcDbFace
 10
219143.7339180016
 20
136480.2768022935
 30
0.0
 11
219107.9408833862
 21
136425.1463738693
 31
0.0
 12
219087.2245138185
 22
136414.7443941858
 32
0.0
 13
219125.6693477171
 23
136462.212232009
 33
0.0
 70
     5
  0
3DFACE
  5
9F
330
2
100
AcDbEntity
  8
0
370
     5
100
AcDbFace
 10
219159.0437606091
 20
136500.728357698
 30
0.0
 11
219129.5903022792
 21
136439.612053097
 31
0.0
 12
219107.9408833862
 22
136425.1463738693
 32
0.0
 13
219143.7339180016
 23
136480.2768022935
 33
0.0
 70
     5
  0
3DFACE
  5
A0
330
2
100
AcDbEntity
  8
0
370
     5
100
AcDbFace
 10
219171.2872112939
 20
136523.1505635319
 30
0.0
 11
219149.166357365
 21
136456.7797926455
 31
0.0
 12
219129.5903022792
 22
136439.612053097
 32
0.0
 13
219159.0437606091
 23
136500.728357698
 33
0.0
 70
     5
  0
3DFACE
  5
A1
330
2
100
AcDbEntity
  8
0
370
     5
100
AcDbFace
 10
219196.0976759636
 20
136531.2199956665
 30
0.0
 11
219192.315883266
 21
136521.3576217652
 31
0.0
 12
219171.2872112939
 22
136523.1505635319
 32
0.0
 13
219177.2401091301
 23
136537.8827408306
 33
0.0
 70
     2
  0
3DFACE
  5
A2
330
2
100
AcDbEntity
  8
0
370
     5
100
AcDbFace
 10
219192.315883266
 20
136521.3576217652
 30
0.0
 11
219180.7997761413
 21
136498.0052666244
 31
0.0
 12
219149.166357365
 22
136456.7797926455
 32
0.0
 13
219171.2872112939
 23
136523.1505635319
 33
0.0
 70
    14
  0
3DFACE
  5
A3
330
2
100
AcDbEntity
  8
0
370
     5
100
AcDbFace
 10
219166.3340969136
 20
136476.3558477313
 30
0.0
 11
219149.166357365
 21
136456.7797926455
 31
0.0
 12
219180.7997761413
 22
136498.0052666244
 32
0.0
 13
219180.7997761413
 23
136498.0052666244
 33
0.0
 70
     2
  0
ARC
  5
A4
330
2
100
AcDbEntity
  8
0
370
     5
100
AcDbCircle
 10
218481.0838366324
 20
135314.3775997076
 30
0.0
 40
223.9653873215967
100
AcDbArc
 50
152.1184220061713
 51
212.1992922127585
  0
ARC
  5
A5
330
2
100
AcDbEntity
  8
0
370
     5
100
AcDbCircle
 10
217613.3651910045
 20
135314.3775997076
 30
0.0
 40
223.9653901831533
100
AcDbArc
 50
327.8007079573148
 51
27.88157760518666
  0
ARC
  5
A6
330
2
100
AcDbEntity
  8
0
370
     5
100
AcDbCircle
 10
-218047.2245154576
 20
135922.8430278039
 30
-0.0000000000010516
 40
767.7289931028264
210
0.0
220
0.0
230
-1.0
100
AcDbArc
 50
251.442078473331
 51
288.5579215195258
  0
ARC
  5
A7
330
2
100
AcDbEntity
  8
0
370
     5
100
AcDbCircle
 10
-218047.2245138184
 20
135903.9459037301
 30
0.0
 40
779.8385944337549
210
0.0
220
0.0
230
-1.0
100
AcDbArc
 50
250.3002069630842
 51
289.6997930369158
  0
ARC
  5
A8
330
2
100
AcDbEntity
  8
0
370
     5
100
AcDbCircle
 10
-218047.2245138184
 20
135903.9459037301
 30
0.0
 40
809.838594433755
210
0.0
220
0.0
230
-1.0
100
AcDbArc
 50
249.3233229028495
 51
290.6766770971505
  0
ARC
  5
A9
330
2
100
AcDbEntity
  8
0
370
     5
100
AcDbCircle
 10
-218047.2245138184
 20
135903.9459037301
 30
0.0
 40
839.8385944337547
210
0.0
220
0.0
230
-1.0
100
AcDbArc
 50
248.0243340514475
 51
291.9756659485525
  0
LWPOLYLINE
  5
AA
330
2
100
AcDbEntity
  8
0
370
     5
100
AcDbPolyline
 90
        7
 70
     0
 43
0.0
 10
219180.8600191619
 20
135702.1847169514
 42
-0.0924781669570143
 10
219087.2245138185
 20
135634.1156150193
 10
219087.2245138185
 20
135547.464066338
 42
0.0971389859807995
 10
219217.5595628691
 20
135626.2254145589
 10
219177.2245138184
 20
135670.6448226829
 42
0.0189466167103669
 10
219195.3873741725
 20
135688.4385918103
 10
219180.8600191619
 20
135702.1847169514
  0
CIRCLE
  5
AB
330
2
100
AcDbEntity
  8
0
370
     5
100
AcDbCircle
 10
219031.971746557
 20
135219.5960700106
 30
90.0
 40
128.0448260193482
  0
CIRCLE
  5
AC
330
2
100
AcDbEntity
  8
0
370
     5
100
AcDbCircle
 10
219031.971746557
 20
135219.5960700106
 30
90.0
 40
148.0448260193482
  0
LWPOLYLINE
  5
AD
330
2
100
AcDbEntity
  8
0
370
     5
100
AcDbPolyline
 90
        7
 70
     0
 43
0.0
 38
90.0
 10
219087.2245138185
 20
135335.1062824608
 42
-1.973703847627316
 10
218905.1996725659
 20
135237.6049213432
 10
218821.2218585754
 20
135237.6053642913
 42
0.1918147432402222
 10
218866.5484958404
 20
135087.781814002
 10
218918.4845066237
 20
135124.5281107214
 42
1.280881847375806
 10
219087.2245138185
 20
135356.9438119689
 10
219087.2245138185
 20
135335.1062824608
  0
LWPOLYLINE
  5
AE
330
2
100
AcDbEntity
  8
0
370
     5
100
AcDbPolyline
 90
        7
 70
     0
 43
0.0
 10
219155.9452591949
 20
135251.6280171033
 42
0.2214630575585591
 10
219087.2245138185
 20
135335.1062824608
 10
219087.2245138185
 20
135423.7699735961
 42
-0.2141849580200233
 10
219221.2616415097
 20
135313.9845525366
 10
219166.1557617673
 20
135282.1414181441
 42
-0.0399799967127761
 10
219174.3998117882
 20
135259.9881081569
 10
219155.9452591949
 20
135251.6280171033
  0
LWPOLYLINE
  5
AF
330
2
100
AcDbEntity
  8
0
370
     5
100
AcDbPolyline
 90
        2
 70
     0
 43
0.0
 10
218408.0781324203
 20
135134.3342939382
 10
218838.3993324436
 20
135134.3342939382
  0
LWPOLYLINE
  5
B0
330
2
100
AcDbEntity
  8
0
370
     5
100
AcDbPolyline
 90
        2
 70
     0
 43
0.0
 10
218271.2402157592
 20
135237.6175666153
 10
218821.2218585754
 20
135237.6053642913
  0
LWPOLYLINE
  5
B1
330
2
100
AcDbEntity
  8
0
370
     5
100
AcDbPolyline
 90
        2
 70
     0
 43
0.0
 38
60.0
 10
218315.8330564193
 20
135214.7748144439
 10
218820.5086311013
 20
135214.7793526081
  0
LWPOLYLINE
  5
B2
330
2
100
AcDbEntity
  8
0
370
     5
100
AcDbPolyline
 90
        2
 70
     0
 43
0.0
 10
218866.5484958404
 20
135087.781814002
 42
0.8993454471486689
 10
219221.2616415097
 20
135313.9845525366
 42
90143.75371031833
  0
LWPOLYLINE
  5
B3
330
2
100
AcDbEntity
  8
0
370
     5
100
AcDbPolyline
 90
        2
 70
     0
 43
0.0
 38
60.0
 10
218918.4845066237
 20
135124.5281107214
 42
0.8772711568598664
 10
219166.1557617673
 20
135282.1414181441
 42
90143.75371031833
  0
3DFACE
  5
B4
330
2
100
AcDbEntity
  8
0
370
     5
100
AcDbFace
 10
219094.6669976131
 20
135017.7304238325
 30
0.0
 11
219120.9331181115
 21
135027.855407764
 31
0.0
 12
219094.4683289979
 22
135085.389335104
 32
60.0
 13
219076.4118915613
 23
135078.3787055574
 33
60.0
  0
3DFACE
  5
B5
330
2
100
AcDbEntity
  8
0
370
     5
100
AcDbFace
 10
219120.9331181115
 20
135027.855407764
 30
0.0
 11
219145.6222701919
 21
135041.3783569686
 31
0.0
 12
219111.4549384651
 22
135094.6973401724
 32
60.0
 13
219094.4683289979
 23
135085.389335104
 33
60.0
  0
3DFACE
  5
B6
330
2
100
AcDbEntity
  8
0
370
     5
100
AcDbFace
 10
219145.6222701919
 20
135041.3783569686
 30
0.0
 11
219168.2972350953
 21
135058.0597943248
 31
0.0
 12
219127.080940064
 22
135106.1433846235
 32
60.0
 13
219111.4549384651
 23
135094.6973401724
 33
60.0
  0
3DFACE
  5
B7
330
2
100
AcDbEntity
  8
0
370
     5
100
AcDbFace
 10
219168.2972350953
 20
135058.0597943248
 30
0.0
 11
219188.5564631862
 21
135077.6043092282
 31
0.0
 12
219141.078845031
 22
135119.5315329673
 32
60.0
 13
219127.080940064
 23
135106.1433846235
 33
60.0
  0
3DFACE
  5
B8
330
2
100
AcDbEntity
  8
0
370
     5
100
AcDbFace
 10
219188.5564631862
 20
135077.6043092282
 30
0.0
 11
219206.0411849716
 21
135099.6657890002
 31
0.0
 12
219153.2090346596
 22
135134.6326044232
 32
60.0
 13
219141.078845031
 23
135119.5315329673
 33
60.0
  0
3DFACE
  5
B9
330
2
100
AcDbEntity
  8
0
370
     5
100
AcDbFace
 10
219206.0411849716
 20
135099.6657890002
 30
0.0
 11
219220.4417645298
 21
135123.8535481777
 31
0.0
 12
219163.2638621373
 22
135151.1880960782
 32
60.0
 13
219153.2090346596
 23
135134.6326044232
 33
60.0
  0
3DFACE
  5
BA
330
2
100
AcDbEntity
  8
0
370
     5
100
AcDbFace
 10
219220.4417645298
 20
135123.8535481777
 30
0.0
 11
219231.5031828345
 21
135149.7392471393
 31
0.0
 12
219171.0712070818
 22
135168.9146079873
 32
60.0
 13
219163.2638621373
 23
135151.1880960782
 33
60.0
  0
ARC
  5
BB
330
2
100
AcDbEntity
  8
0
370
     5
100
AcDbCircle
 10
-217617.0966272223
 20
135314.0377448795
 30
0.0
 40
189.6991239915944
210
0.0
220
0.0
230
-1.0
100
AcDbArc
 50
146.3643110086741
 51
211.320551534357
  0
ARC
  5
BC
330
2
100
AcDbEntity
  8
0
370
     5
100
AcDbCircle
 10
217613.8292060643
 20
135314.3601077293
 30
0.0
 40
223.5635407280567
100
AcDbArc
 50
327.7411331568379
 51
27.94115240605916
  0
3DFACE
  5
BD
330
2
100
AcDbEntity
  8
0
370
     5
100
AcDbFace
 10
217798.6566982428
 20
135188.6919543443
 30
0.0
 11
217802.8846468034
 21
135195.0341013831
 31
0.0
 12
217802.8846468034
 22
135195.0341013831
 32
59.95324940854686
 13
217798.6566982428
 23
135188.6919543443
 33
58.2830459908478
  0
3DFACE
  5
BE
330
2
100
AcDbEntity
  8
0
370
     5
100
AcDbFace
 10
217760.9683483899
 20
135146.1506028766
 30
0.0
 11
217781.0991621591
 21
135166.2814160258
 31
0.0
 12
217781.0991621591
 22
135166.2814160258
 32
52.00461619102586
 13
217760.9683483899
 23
135146.1506028766
 33
45.73767209828284
  0
3DFACE
  5
BF
330
2
100
AcDbEntity
  8
0
370
     5
100
AcDbFace
 10
217738.5578095305
 20
135128.5930674831
 30
0.0
 11
217760.9683483899
 21
135146.1506028766
 31
0.0
 12
217760.9683483899
 22
135146.1506028766
 32
45.73767209828284
 13
217738.5578095305
 23
135128.5930674831
 33
39.57359986942003
  0
3DFACE
  5
C0
330
2
100
AcDbEntity
  8
0
370
     5
100
AcDbFace
 10
217714.1943417016
 20
135113.8648382477
 30
0.0
 11
217738.5578095305
 21
135128.5930674831
 31
0.0
 12
217738.5578095305
 22
135128.5930674831
 32
39.57359986942003
 13
217714.1943417016
 23
135113.8648382477
 33
33.60228555781608
  0
3DFACE
  5
C1
330
2
100
AcDbEntity
  8
0
370
     5
100
AcDbFace
 10
217698.1001555093
 20
135106.1798237858
 30
0.0
 11
217714.1943417016
 21
135113.8648382477
 31
0.0
 12
217714.1943417016
 22
135113.8648382477
 32
33.60228555781608
 13
217698.1001555093
 23
135106.1798237858
 33
29.99999999999997
  0
3DFACE
  5
C2
330
2
100
AcDbEntity
  8
0
370
     5
100
AcDbFace
 10
217686.3708918286
 20
135134.3342972049
 30
0.0
 11
217698.1001555093
 21
135106.1798237858
 31
0.0
 12
217698.1001555093
 22
135106.1798237858
 32
29.99999999999997
 13
217686.3708918286
 23
135134.3342972049
 33
33.0265903065976
  0
3DFACE
  5
C3
330
2
100
AcDbEntity
  8
0
370
     5
100
AcDbFace
 10
217692.8362381861
 20
135137.1446752634
 30
0.0
 11
217686.3708918286
 21
135134.3342972049
 31
0.0
 12
217686.3708918286
 22
135134.3342972049
 32
33.0265903065976
 13
217692.8362381861
 23
135137.1446752634
 33
34.42734456839943
  0
3DFACE
  5
C4
330
2
100
AcDbEntity
  8
0
370
     5
100
AcDbFace
 10
217716.8855875231
 20
135150.2766130402
 30
0.0
 11
217692.8362381861
 21
135137.1446752634
 31
0.0
 12
217692.8362381861
 22
135137.1446752634
 32
34.42734456839943
 13
217716.8855875231
 23
135150.2766130402
 33
40.08618629816878
  0
3DFACE
  5
C5
330
2
100
AcDbEntity
  8
0
370
     5
100
AcDbFace
 10
217738.8212795592
 20
135166.6974658866
 30
0.0
 11
217716.8855875231
 21
135150.2766130402
 31
0.0
 12
217716.8855875231
 22
135150.2766130402
 32
40.08618629816878
 13
217738.8212795592
 23
135166.6974658866
 33
45.99161725669637
  0
3DFACE
  5
C6
330
2
100
AcDbEntity
  8
0
370
     5
100
AcDbFace
 10
217758.1967668619
 20
135186.0729525925
 30
0.0
 11
217738.8212795592
 21
135166.6974658866
 31
0.0
 12
217738.8212795592
 22
135166.6974658866
 32
45.99161725669637
 13
217758.1967668619
 23
135186.0729525925
 33
52.02341989952318
  0
3DFACE
  5
C7
330
2
100
AcDbEntity
  8
0
370
     5
100
AcDbFace
 10
217774.6176203839
 20
135208.0086441229
 30
0.0
 11
217758.1967668619
 21
135186.0729525925
 31
0.0
 12
217758.1967668619
 22
135186.0729525925
 32
52.02341989952318
 13
217774.6176203839
 23
135208.0086441229
 33
58.05880411912369
  0
3DFACE
  5
C8
330
2
100
AcDbEntity
  8
0
370
     5
100
AcDbFace
 10
217779.1513562956
 20
135215.4272922279
 30
0.0
 11
217774.6176203839
 21
135208.0086441229
 31
0.0
 12
217774.6176203839
 22
135208.0086441229
 32
58.05880411912369
 13
217779.1513562956
 23
135215.4272922279
 33
59.95324900564074
  0
3DFACE
  5
C9
330
2
100
AcDbEntity
  8
0
370
     5
100
AcDbFace
 10
217698.1001555093
 20
135106.1798237858
 30
29.99999999999997
 11
217714.1943417016
 21
135113.8648382477
 31
33.60228555781608
 12
217692.8362381861
 22
135137.1446752634
 32
34.42734456839943
 13
217686.3708918286
 23
135134.3342972049
 33
33.0265903065976
 70
     2
  0
3DFACE
  5
CA
330
2
100
AcDbEntity
  8
0
370
     5
100
AcDbFace
 10
218380.2546859364
 20
135113.8648382489
 30
0.0
 11
218355.8912181075
 21
135128.5930674843
 31
0.0
 12
218313.3498654787
 22
135166.2814160268
 32
0.0
 13
218401.6127894519
 23
135137.1446752648
 33
0.0
 70
    14
  0
3DFACE
  5
CB
330
2
100
AcDbEntity
  8
0
370
     5
100
AcDbFace
 10
218396.3488721288
 20
135106.1798237871
 30
0.0
 11
218380.2546859364
 21
135113.8648382489
 31
0.0
 12
218401.6127894519
 22
135137.1446752648
 32
0.0
 13
218408.0781358093
 23
135134.3342972063
 33
0.0
 70
     2
  0
3DFACE
  5
CC
330
2
100
AcDbEntity
  8
0
370
     5
100
AcDbFace
 10
218401.6127894519
 20
135137.1446752648
 30
0.0
 11
218295.7923293949
 21
135188.6919543453
 31
0.0
 12
218291.5643808343
 22
135195.034101384
 32
0.0
 13
218377.5634401148
 23
135150.2766130415
 33
0.0
 70
     5
  0
3DFACE
  5
CD
330
2
100
AcDbEntity
  8
0
370
     5
100
AcDbFace
 10
218336.2522607759
 20
135186.0729525936
 30
52.02341989952318
 11
218380.2546859364
 21
135113.8648382489
 31
33.60228555781608
 12
218396.3488721288
 22
135106.1798237871
 32
29.99999999999997
 13
218355.6277480787
 23
135166.6974658878
 33
45.99161725669637
 70
     5
  0
3DFACE
  5
CE
330
2
100
AcDbEntity
  8
0
370
     5
100
AcDbFace
 10
218396.3488721288
 20
135106.1798237871
 30
29.99999999999997
 11
218401.6127894519
 21
135137.1446752648
 31
34.42734456839943
 12
218377.5634401148
 22
135150.2766130415
 32
40.08618629816878
 13
218377.5634401148
 23
135150.2766130415
 33
40.08618629816878
 70
    13
  0
3DFACE
  5
CF
330
2
100
AcDbEntity
  8
0
370
     5
100
AcDbFace
 10
218396.3488721288
 20
135106.1798237871
 30
29.99999999999997
 11
218408.0781358093
 21
135134.3342972063
 31
33.0265903065976
 12
218401.6127894519
 22
135137.1446752648
 32
34.42734456839943
 13
218401.6127894519
 23
135137.1446752648
 33
34.42734456839943
 70
    12
  0
3DFACE
  5
D0
330
2
100
AcDbEntity
  8
0
370
     5
100
AcDbFace
 10
218319.8314072537
 20
135208.0086441239
 30
58.05880411912369
 11
218336.2522607759
 21
135186.0729525936
 31
52.02341989952318
 12
218336.2522607759
 22
135186.0729525936
 32
0.0
 13
218319.8314072537
 23
135208.0086441239
 33
0.0
  0
3DFACE
  5
D1
330
2
100
AcDbEntity
  8
0
370
     5
100
AcDbFace
 10
218355.6277480787
 20
135166.6974658878
 30
45.99161725669637
 11
218377.5634401148
 21
135150.2766130415
 31
40.08618629816878
 12
218377.5634401148
 22
135150.2766130415
 32
0.0
 13
218355.6277480787
 23
135166.6974658878
 33
0.0
  0
3DFACE
  5
D2
330
2
100
AcDbEntity
  8
0
370
     5
100
AcDbFace
 10
218377.5634401148
 20
135150.2766130415
 30
40.08618629816878
 11
218401.6127894519
 21
135137.1446752648
 31
34.42734456839943
 12
218401.6127894519
 22
135137.1446752648
 32
0.0
 13
218377.5634401148
 23
135150.2766130415
 33
0.0
  0
3DFACE
  5
D3
330
2
100
AcDbEntity
  8
0
370
     5
100
AcDbFace
 10
218408.0781358093
 20
135134.3342972063
 30
33.0265903065976
 11
218396.3488721288
 21
135106.1798237871
 31
29.99999999999997
 12
218396.3488721288
 22
135106.1798237871
 32
0.0
 13
218408.0781358093
 23
135134.3342972063
 33
0.0
  0
3DFACE
  5
D4
330
2
100
AcDbEntity
  8
0
370
     5
100
AcDbFace
 10
218396.3488721288
 20
135106.1798237871
 30
29.99999999999997
 11
218380.2546859364
 21
135113.8648382489
 31
33.60228555781608
 12
218380.2546859364
 22
135113.8648382489
 32
0.0
 13
218396.3488721288
 23
135106.1798237871
 33
0.0
  0
ARC
  5
D5
330
2
100
AcDbEntity
  8
0
370
     5
100
AcDbCircle
 10
-217613.8292060661
 20
136523.8679644094
 30
0.0
 40
223.5635407280567
210
0.0
220
0.0
230
-1.0
100
AcDbArc
 50
147.7411331568379
 51
207.9411524060591
  0
ARC
  5
D6
330
2
100
AcDbEntity
  8
0
370
     5
100
AcDbCircle
 10
217612.82213804
 20
136523.2153370816
 30
116.1176082382473
 40
193.9784874262624
100
AcDbArc
 50
329.9617736984311
 51
33.47881698686561
  0
3DFACE
  5
D7
330
2
100
AcDbEntity
  8
0
370
     5
100
AcDbFace
 10
217714.194341704
 20
136724.3632338908
 30
0.0
 11
217738.5578095328
 21
136709.6350046552
 31
0.0
 12
217781.0991621613
 22
136671.9466561125
 32
0.0
 13
217692.8362381883
 23
136701.0833968751
 33
0.0
 70
    14
  0
3DFACE
  5
D8
330
2
100
AcDbEntity
  8
0
370
     5
100
AcDbFace
 10
217698.1001555116
 20
136732.0482483528
 30
0.0
 11
217714.194341704
 21
136724.3632338908
 31
0.0
 12
217692.8362381883
 22
136701.0833968751
 32
0.0
 13
217686.3708918309
 23
136703.8937749336
 33
0.0
 70
     2
  0
3DFACE
  5
D9
330
2
100
AcDbEntity
  8
0
370
     5
100
AcDbFace
 10
217692.8362381883
 20
136701.0833968751
 30
0.0
 11
217798.6566982449
 21
136649.5361177939
 31
0.0
 12
217802.8846468055
 22
136643.1939707551
 32
0.0
 13
217716.8855875253
 23
136687.9514590982
 33
0.0
 70
     5
  0
3DFACE
  5
DA
330
2
100
AcDbEntity
  8
0
370
     5
100
AcDbFace
 10
217802.8846468055
 20
136643.1939707551
 30
0.0
 11
217738.8212795614
 21
136671.5306062518
 31
0.0
 12
217716.8855875253
 22
136687.9514590982
 32
0.0
 13
217716.8855875253
 23
136687.9514590982
 33
0.0
 70
    13
  0
3DFACE
  5
DB
330
2
100
AcDbEntity
  8
0
370
     5
100
AcDbFace
 10
217802.8846468055
 20
136643.1939707551
 30
0.0
 11
217758.196766864
 21
136652.1551195458
 31
0.0
 12
217738.8212795614
 22
136671.5306062518
 32
0.0
 13
217738.8212795614
 23
136671.5306062518
 33
0.0
 70
    13
  0
3DFACE
  5
DC
330
2
100
AcDbEntity
  8
0
370
     5
100
AcDbFace
 10
217774.617620386
 20
136630.2194280154
 30
58.05880411912369
 11
217738.5578095328
 21
136709.6350046552
 31
39.57359986942003
 12
217714.194341704
 22
136724.3632338908
 32
33.60228555781608
 13
217758.196766864
 23
136652.1551195458
 33
52.02341989952318
 70
     5
  0
3DFACE
  5
DD
330
2
100
AcDbEntity
  8
0
370
     5
100
AcDbFace
 10
217758.196766864
 20
136652.1551195458
 30
52.02341989952318
 11
217714.194341704
 21
136724.3632338908
 31
33.60228555781608
 12
217698.1001555116
 22
136732.0482483528
 32
29.99999999999997
 13
217738.8212795614
 23
136671.5306062518
 33
45.99161725669637
 70
     5
  0
3DFACE
  5
DE
330
2
100
AcDbEntity
  8
0
370
     5
100
AcDbFace
 10
217698.1001555116
 20
136732.0482483528
 30
29.99999999999997
 11
217716.8855875253
 21
136687.9514590982
 31
40.08618629816878
 12
217738.8212795614
 22
136671.5306062518
 32
45.99161725669637
 13
217738.8212795614
 23
136671.5306062518
 33
45.99161725669637
 70
    13
  0
3DFACE
  5
DF
330
2
100
AcDbEntity
  8
0
370
     5
100
AcDbFace
 10
217698.1001555116
 20
136732.0482483528
 30
29.99999999999997
 11
217692.8362381883
 21
136701.0833968751
 31
34.42734456839943
 12
217716.8855875253
 22
136687.9514590982
 32
40.08618629816878
 13
217716.8855875253
 23
136687.9514590982
 33
40.08618629816878
 70
    13
  0
3DFACE
  5
E0
330
2
100
AcDbEntity
  8
0
370
     5
100
AcDbFace
 10
217698.1001555116
 20
136732.0482483528
 30
29.99999999999997
 11
217686.3708918309
 21
136703.8937749336
 31
33.0265903065976
 12
217692.8362381883
 22
136701.0833968751
 32
34.42734456839943
 13
217692.8362381883
 23
136701.0833968751
 33
34.42734456839943
 70
    12
  0
3DFACE
  5
E1
330
2
100
AcDbEntity
  8
0
370
     5
100
AcDbFace
 10
217738.8212795614
 20
136671.5306062518
 30
0.0
 11
217758.196766864
 21
136652.1551195458
 31
0.0
 12
217758.196766864
 22
136652.1551195458
 32
52.02341989952318
 13
217738.8212795614
 23
136671.5306062518
 33
45.99161725669637
  0
3DFACE
  5
E2
330
2
100
AcDbEntity
  8
0
370
     5
100
AcDbFace
 10
217716.8855875253
 20
136687.9514590982
 30
0.0
 11
217738.8212795614
 21
136671.5306062518
 31
0.0
 12
217738.8212795614
 22
136671.5306062518
 32
45.99161725669637
 13
217716.8855875253
 23
136687.9514590982
 33
40.08618629816878
  0
3DFACE
  5
E3
330
2
100
AcDbEntity
  8
0
370
     5
100
AcDbFace
 10
217692.8362381883
 20
136701.0833968751
 30
0.0
 11
217716.8855875253
 21
136687.9514590982
 31
0.0
 12
217716.8855875253
 22
136687.9514590982
 32
40.08618629816878
 13
217692.8362381883
 23
136701.0833968751
 33
34.42734456839943
  0
3DFACE
  5
E4
330
2
100
AcDbEntity
  8
0
370
     5
100
AcDbFace
 10
217686.3708918309
 20
136703.8937749336
 30
0.0
 11
217692.8362381883
 21
136701.0833968751
 31
0.0
 12
217692.8362381883
 22
136701.0833968751
 32
34.42734456839943
 13
217686.3708918309
 23
136703.8937749336
 33
33.0265903065976
  0
3DFACE
  5
E5
330
2
100
AcDbEntity
  8
0
370
     5
100
AcDbFace
 10
217698.1001555116
 20
136732.0482483528
 30
0.0
 11
217686.3708918309
 21
136703.8937749336
 31
0.0
 12
217686.3708918309
 22
136703.8937749336
 32
33.0265903065976
 13
217698.1001555116
 23
136732.0482483528
 33
29.99999999999997
  0
3DFACE
  5
E6
330
2
100
AcDbEntity
  8
0
370
     5
100
AcDbFace
 10
217714.194341704
 20
136724.3632338908
 30
0.0
 11
217698.1001555116
 21
136732.0482483528
 31
0.0
 12
217698.1001555116
 22
136732.0482483528
 32
29.99999999999997
 13
217714.194341704
 23
136724.3632338908
 33
33.60228555781608
  0
3DFACE
  5
E7
330
2
100
AcDbEntity
  8
0
370
     5
100
AcDbFace
 10
217738.5578095328
 20
136709.6350046552
 30
0.0
 11
217714.194341704
 21
136724.3632338908
 31
0.0
 12
217714.194341704
 22
136724.3632338908
 32
33.60228555781608
 13
217738.5578095328
 23
136709.6350046552
 33
39.57359986942003
  0
ARC
  5
E8
330
2
100
AcDbEntity
  8
0
370
     5
100
AcDbCircle
 10
-218481.2070822874
 20
136523.1043917981
 30
0.0
 40
193.5595606533046
210
0.0
220
0.0
230
-1.0
100
AcDbArc
 50
329.9279983071035
 51
31.00201901430795
  0
LINE
  5
E9
330
2
100
AcDbEntity
  8
0
370
     5
100
AcDbLine
 10
218315.2976691997
 20
136622.8007817488
 30
0.0
 11
218291.5643793624
 21
136643.1939737883
 31
0.0
  0
ARC
  5
EA
330
2
100
AcDbEntity
  8
0
370
     5
100
AcDbCircle
 10
218480.6198215708
 20
136523.8679644094
 30
0.0
 40
223.5635407280567
100
AcDbArc
 50
147.7411331568379
 51
207.9411524060591
  0
3DFACE
  5
EB
330
2
100
AcDbEntity
  8
0
370
     5
100
AcDbFace
 10
218291.5643808313
 20
136643.1939707551
 30
59.95324940854686
 11
218295.7923293919
 21
136649.5361177939
 31
58.2830459908478
 12
218295.7923293919
 22
136649.5361177939
 32
0.0
 13
218291.5643808313
 23
136643.1939707551
 33
0.0
  0
3DFACE
  5
EC
330
2
100
AcDbEntity
  8
0
370
     5
100
AcDbFace
 10
218295.7923293919
 20
136649.5361177939
 30
58.2830459908478
 11
218313.3498654756
 21
136671.9466561125
 31
52.00461619102586
 12
218313.3498654756
 22
136671.9466561125
 32
0.0
 13
218295.7923293919
 23
136649.5361177939
 33
0.0
  0
3DFACE
  5
ED
330
2
100
AcDbEntity
  8
0
370
     5
100
AcDbFace
 10
218333.4806792448
 20
136692.0774692618
 30
45.73767209828284
 11
218355.8912181041
 21
136709.6350046552
 31
39.57359986942003
 12
218355.8912181041
 22
136709.6350046552
 32
0.0
 13
218333.4806792448
 23
136692.0774692618
 33
0.0
  0
3DFACE
  5
EE
330
2
100
AcDbEntity
  8
0
370
     5
100
AcDbFace
 10
218380.2546859329
 20
136724.3632338908
 30
33.60228555781608
 11
218396.3488721252
 21
136732.0482483528
 31
29.99999999999997
 12
218396.3488721252
 22
136732.0482483528
 32
0.0
 13
218380.2546859329
 23
136724.3632338908
 33
0.0
  0
3DFACE
  5
EF
330
2
100
AcDbEntity
  8
0
370
     5
100
AcDbFace
 10
218396.3488721252
 20
136732.0482483528
 30
29.99999999999997
 11
218408.0781358059
 21
136703.8937749336
 31
33.0265903065976
 12
218408.0781358059
 22
136703.8937749336
 32
0.0
 13
218396.3488721252
 23
136732.0482483528
 33
0.0
  0
3DFACE
  5
F0
330
2
100
AcDbEntity
  8
0
370
     5
100
AcDbFace
 10
218408.0781358059
 20
136703.8937749336
 30
33.0265903065976
 11
218401.6127894485
 21
136701.0833968751
 31
34.42734456839943
 12
218401.6127894485
 22
136701.0833968751
 32
0.0
 13
218408.0781358059
 23
136703.8937749336
 33
0.0
  0
3DFACE
  5
F1
330
2
100
AcDbEntity
  8
0
370
     5
100
AcDbFace
 10
218401.6127894485
 20
136701.0833968751
 30
34.42734456839943
 11
218377.5634401115
 21
136687.9514590982
 31
40.08618629816878
 12
218377.5634401115
 22
136687.9514590982
 32
0.0
 13
218401.6127894485
 23
136701.0833968751
 33
0.0
  0
3DFACE
  5
F2
330
2
100
AcDbEntity
  8
0
370
     5
100
AcDbFace
 10
218355.6277480755
 20
136671.5306062518
 30
45.99161725669637
 11
218336.2522607728
 21
136652.1551195458
 31
52.02341989952318
 12
218336.2522607728
 22
136652.1551195458
 32
0.0
 13
218355.6277480755
 23
136671.5306062518
 33
0.0
  0
3DFACE
  5
F3
330
2
100
AcDbEntity
  8
0
370
     5
100
AcDbFace
 10
218336.2522607728
 20
136652.1551195458
 30
52.02341989952318
 11
218319.8314072508
 21
136630.2194280154
 31
58.05880411912369
 12
218319.8314072508
 22
136630.2194280154
 32
0.0
 13
218336.2522607728
 23
136652.1551195458
 33
0.0
  0
3DFACE
  5
F4
330
2
100
AcDbEntity
  8
0
370
     5
100
AcDbFace
 10
218315.2976713392
 20
136622.8007799104
 30
59.95324900564074
 11
218291.5643808313
 21
136643.1939707551
 31
59.95324940854686
 12
218291.5643808313
 22
136643.1939707551
 32
0.0
 13
218315.2976713392
 23
136622.8007799104
 33
0.0
  0
3DFACE
  5
F5
330
2
100
AcDbEntity
  8
0
370
     5
100
AcDbFace
 10
218291.5643808313
 20
136643.1939707551
 30
59.95324940854686
 11
218315.2976713392
 21
136622.8007799104
 31
59.95324900564074
 12
218319.8314072508
 22
136630.2194280154
 32
58.05880411912369
 13
218319.8314072508
 23
136630.2194280154
 33
58.05880411912369
 70
    12
  0
3DFACE
  5
F6
330
2
100
AcDbEntity
  8
0
370
     5
100
AcDbFace
 10
218291.5643808313
 20
136643.1939707551
 30
59.95324940854686
 11
218319.8314072508
 21
136630.2194280154
 31
58.05880411912369
 12
218336.2522607728
 22
136652.1551195458
 32
52.02341989952318
 13
218336.2522607728
 23
136652.1551195458
 33
52.02341989952318
 70
    13
  0
3DFACE
  5
F7
330
2
100
AcDbEntity
  8
0
370
     5
100
AcDbFace
 10
218291.5643808313
 20
136643.1939707551
 30
59.95324940854686
 11
218336.2522607728
 21
136652.1551195458
 31
52.02341989952318
 12
218355.6277480755
 22
136671.5306062518
 32
45.99161725669637
 13
218355.6277480755
 23
136671.5306062518
 33
45.99161725669637
 70
    13
  0
3DFACE
  5
F8
330
2
100
AcDbEntity
  8
0
370
     5
100
AcDbFace
 10
218401.6127894485
 20
136701.0833968751
 30
34.42734456839943
 11
218295.7923293919
 21
136649.5361177939
 31
58.2830459908478
 12
218291.5643808313
 22
136643.1939707551
 32
59.95324940854686
 13
218377.5634401115
 23
136687.9514590982
 33
40.08618629816878
 70
     5
  0
3DFACE
  5
F9
330
2
100
AcDbEntity
  8
0
370
     5
100
AcDbFace
 10
218313.3498654756
 20
136671.9466561125
 30
52.00461619102586
 11
218295.7923293919
 21
136649.5361177939
 31
58.2830459908478
 12
218401.6127894485
 22
136701.0833968751
 32
34.42734456839943
 13
218401.6127894485
 23
136701.0833968751
 33
34.42734456839943
 70
    14
  0
3DFACE
  5
FA
330
2
100
AcDbEntity
  8
0
370
     5
100
AcDbFace
 10
218396.3488721252
 20
136732.0482483528
 30
29.99999999999997
 11
218380.2546859329
 21
136724.3632338908
 31
33.60228555781608
 12
218401.6127894485
 22
136701.0833968751
 32
34.42734456839943
 13
218408.0781358059
 23
136703.8937749336
 33
33.0265903065976
 70
     2
  0
3DFACE
  5
FB
330
2
100
AcDbEntity
  8
0
370
     5
100
AcDbFace
 10
218333.4806792448
 20
136692.0774692618
 30
45.73767209828284
 11
218313.3498654756
 21
136671.9466561125
 31
52.00461619102586
 12
218355.8912181041
 22
136709.6350046552
 32
39.57359986942003
 13
218355.8912181041
 23
136709.6350046552
 33
39.57359986942003
 70
     2
  0
3DFACE
  5
FC
330
2
100
AcDbEntity
  8
0
370
     5
100
AcDbFace
 10
218396.3488721252
 20
136732.0482483528
 30
0.0
 11
218408.0781358059
 21
136703.8937749336
 31
0.0
 12
218401.6127894485
 22
136701.0833968751
 32
0.0
 13
218401.6127894485
 23
136701.0833968751
 33
0.0
 70
    12
  0
3DFACE
  5
FD
330
2
100
AcDbEntity
  8
0
370
     5
100
AcDbFace
 10
218396.3488721252
 20
136732.0482483528
 30
0.0
 11
218401.6127894485
 21
136701.0833968751
 31
0.0
 12
218377.5634401115
 22
136687.9514590982
 32
0.0
 13
218377.5634401115
 23
136687.9514590982
 33
0.0
 70
    13
  0
3DFACE
  5
FE
330
2
100
AcDbEntity
  8
0
370
     5
100
AcDbFace
 10
218336.2522607728
 20
136652.1551195458
 30
0.0
 11
218380.2546859329
 21
136724.3632338908
 31
0.0
 12
218396.3488721252
 22
136732.0482483528
 32
0.0
 13
218355.6277480755
 23
136671.5306062518
 33
0.0
 70
     5
  0
3DFACE
  5
FF
330
2
100
AcDbEntity
  8
0
370
     5
100
AcDbFace
 10
218319.8314072508
 20
136630.2194280154
 30
0.0
 11
218355.8912181041
 21
136709.6350046552
 31
0.0
 12
218380.2546859329
 22
136724.3632338908
 32
0.0
 13
218336.2522607728
 23
136652.1551195458
 33
0.0
 70
     5
  0
3DFACE
  5
100
330
2
100
AcDbEntity
  8
0
370
     5
100
AcDbFace
 10
218291.5643808313
 20
136643.1939707551
 30
0.0
 11
218295.7923293919
 21
136649.5361177939
 31
0.0
 12
218319.8314072508
 22
136630.2194280154
 32
0.0
 13
218315.2976713392
 23
136622.8007799104
 33
0.0
 70
     2
  0
3DFACE
  5
101
330
2
100
AcDbEntity
  8
0
370
     5
100
AcDbFace
 10
218295.7923293919
 20
136649.5361177939
 30
0.0
 11
218313.3498654756
 21
136671.9466561125
 31
0.0
 12
218355.8912181041
 22
136709.6350046552
 32
0.0
 13
218319.8314072508
 23
136630.2194280154
 33
0.0
 70
    14
  0
3DFACE
  5
102
330
2
100
AcDbEntity
  8
0
370
     5
100
AcDbFace
 10
218333.4806792448
 20
136692.0774692618
 30
0.0
 11
218355.8912181041
 21
136709.6350046552
 31
0.0
 12
218313.3498654756
 22
136671.9466561125
 32
0.0
 13
218313.3498654756
 23
136671.9466561125
 33
0.0
 70
     2
  0
CIRCLE
  5
103
330
2
100
AcDbEntity
  8
0
370
     5
100
AcDbCircle
 10
-218239.7395072286
 20
135225.6140360681
 30
0.0
 40
22.5
210
0.0
220
0.0
230
-1.0
  0
HATCH
  5
104
330
2
100
AcDbEntity
  8
0
370
     5
100
AcDbHatch
 10
0.0
 20
0.0
 30
0.0
210
0.0
220
0.0
230
1.0
  2
SOLID
 70
     1
 71
     1
 91
        1
 92
        7
 72
     1
 73
     1
 93
        2
 10
217870.3514762228
 20
135225.6140360682
 42
1.0
 10
217835.3514762227
 20
135225.6140360682
 42
1.0
 97
        1
330
112
 75
     0
 76
     1
 47
0.7126391744114322
 98
        1
 10
217854.4864831367
 20
135221.9757817297
1001
ACAD
1010
0.0
1020
0.0
1030
0.0
  0
HATCH
  5
105
330
2
100
AcDbEntity
  8
0
370
     5
100
AcDbHatch
 10
0.0
 20
0.0
 30
0.0
210
0.0
220
0.0
230
1.0
  2
SOLID
 70
     1
 71
     1
 91
        1
 92
        7
 72
     1
 73
     1
 93
        2
 10
218257.2395072289
 20
136612.6140360673
 42
1.0
 10
218222.2395072289
 20
136612.6140360673
 42
1.0
 97
        1
330
114
 75
     0
 76
     1
 47
0.7126391744114322
 98
        1
 10
218245.6308859208
 20
136612.3091324663
1001
ACAD
1010
0.0
1020
0.0
1030
0.0
  0
HATCH
  5
106
330
2
100
AcDbEntity
  8
0
370
     5
100
AcDbHatch
 10
0.0
 20
0.0
 30
0.0
210
0.0
220
0.0
230
1.0
  2
SOLID
 70
     1
 71
     1
 91
        1
 92
        7
 72
     1
 73
     1
 93
        2
 10
218202.2395072289
 20
136612.6140360673
 42
1.0
 10
218167.2395072289
 20
136612.6140360673
 42
1.0
 97
        1
330
116
 75
     0
 76
     1
 47
0.7126391744114322
 98
        1
 10
218187.8683248362
 20
136613.0217705475
1001
ACAD
1010
0.0
1020
0.0
1030
0.0
  0
HATCH
  5
107
330
2
100
AcDbEntity
  8
0
370
     5
100
AcDbHatch
 10
0.0
 20
0.0
 30
0.0
210
0.0
220
0.0
230
1.0
  2
SOLID
 70
     1
 71
     1
 91
        1
 92
        7
 72
     1
 73
     1
 93
        2
 10
217925.351476223
 20
136612.6140360673
 42
1.0
 10
217890.3514762231
 20
136612.6140360673
 42
1.0
 97
        1
330
118
 75
     0
 76
     1
 47
0.7126391744114322
 98
        1
 10
217910.8522408647
 20
136612.2548893708
1001
ACAD
1010
0.0
1020
0.0
1030
0.0
  0
HATCH
  5
108
330
2
100
AcDbEntity
  8
0
370
     5
100
AcDbHatch
 10
0.0
 20
0.0
 30
0.0
210
0.0
220
0.0
230
1.0
  2
SOLID
 70
     1
 71
     1
 91
        1
 92
        7
 72
     1
 73
     1
 93
        2
 10
217870.3514762231
 20
136612.6140360673
 42
1.0
 10
217835.3514762231
 20
136612.6140360673
 42
1.0
 97
        1
330
11A
 75
     0
 76
     1
 47
0.7126391744114322
 98
        1
 10
217855.2290457131
 20
136614.3928036142
1001
ACAD
1010
0.0
1020
0.0
1030
0.0
  0
HATCH
  5
109
330
2
100
AcDbEntity
  8
0
370
     5
100
AcDbHatch
 10
0.0
 20
0.0
 30
0.0
210
0.0
220
0.0
230
1.0
  2
SOLID
 70
     1
 71
     1
 91
        1
 92
        7
 72
     1
 73
     1
 93
        2
 10
218257.2395072286
 20
135225.6140360681
 42
1.0
 10
218222.2395072286
 20
135225.6140360681
 42
1.0
 97
        1
330
10C
 75
     0
 76
     1
 47
0.7126391744114322
 98
        1
 10
218239.8763184686
 20
135221.9757817297
1001
ACAD
1010
0.0
1020
0.0
1030
0.0
  0
HATCH
  5
10A
330
2
100
AcDbEntity
  8
0
370
     5
100
AcDbHatch
 10
0.0
 20
0.0
 30
0.0
210
0.0
220
0.0
230
1.0
  2
SOLID
 70
     1
 71
     1
 91
        1
 92
        7
 72
     1
 73
     1
 93
        2
 10
218202.2395072286
 20
135225.6140360681
 42
1.0
 10
218167.2395072286
 20
135225.6140360681
 42
1.0
 97
        1
330
10E
 75
     0
 76
     1
 47
0.7126391744114322
 98
        1
 10
218188.1461254276
 20
135223.2681632666
1001
ACAD
1010
0.0
1020
0.0
1030
0.0
  0
HATCH
  5
10B
330
2
100
AcDbEntity
  8
0
370
     5
100
AcDbHatch
 10
0.0
 20
0.0
 30
0.0
210
0.0
220
0.0
230
1.0
  2
SOLID
 70
     1
 71
     1
 91
        1
 92
        7
 72
     1
 73
     1
 93
        2
 10
217925.3514762227
 20
135225.6140360682
 42
1.0
 10
217890.3514762227
 20
135225.6140360682
 42
1.0
 97
        1
330
110
 75
     0
 76
     1
 47
0.7126391744114322
 98
        1
 10
217903.6301700713
 20
135227.1453270515
1001
ACAD
1010
0.0
1020
0.0
1030
0.0
  0
CIRCLE
  5
10C
102
{ACAD_REACTORS
330
109
102
}
330
2
100
AcDbEntity
  8
0
370
     5
100
AcDbCircle
 10
-218239.7395072286
 20
135225.6140360681
 30
0.0
 40
17.5
210
0.0
220
0.0
230
-1.0
  0
CIRCLE
  5
10D
330
2
100
AcDbEntity
  8
0
370
     5
100
AcDbCircle
 10
-218184.7395072286
 20
135225.6140360681
 30
0.0
 40
22.5
210
0.0
220
0.0
230
-1.0
  0
CIRCLE
  5
10E
102
{ACAD_REACTORS
330
10A
102
}
330
2
100
AcDbEntity
  8
0
370
     5
100
AcDbCircle
 10
-218184.7395072286
 20
135225.6140360681
 30
0.0
 40
17.5
210
0.0
220
0.0
230
-1.0
  0
CIRCLE
  5
10F
330
2
100
AcDbEntity
  8
0
370
     5
100
AcDbCircle
 10
-217907.8514762228
 20
135225.6140360682
 30
0.0
 40
22.5
210
0.0
220
0.0
230
-1.0
  0
CIRCLE
  5
110
102
{ACAD_REACTORS
330
10B
102
}
330
2
100
AcDbEntity
  8
0
370
     5
100
AcDbCircle
 10
-217907.8514762228
 20
135225.6140360682
 30
0.0
 40
17.5
210
0.0
220
0.0
230
-1.0
  0
CIRCLE
  5
111
330
2
100
AcDbEntity
  8
0
370
     5
100
AcDbCircle
 10
-217852.8514762227
 20
135225.6140360682
 30
0.0
 40
22.5
210
0.0
220
0.0
230
-1.0
  0
CIRCLE
  5
112
102
{ACAD_REACTORS
330
104
102
}
330
2
100
AcDbEntity
  8
0
370
     5
100
AcDbCircle
 10
-217852.8514762227
 20
135225.6140360682
 30
0.0
 40
17.5
210
0.0
220
0.0
230
-1.0
  0
CIRCLE
  5
113
330
2
100
AcDbEntity
  8
0
370
     5
100
AcDbCircle
 10
218239.7395072289
 20
136612.6140360673
 30
0.0
 40
22.5
  0
CIRCLE
  5
114
102
{ACAD_REACTORS
330
105
102
}
330
2
100
AcDbEntity
  8
0
370
     5
100
AcDbCircle
 10
218239.7395072289
 20
136612.6140360673
 30
0.0
 40
17.5
  0
CIRCLE
  5
115
330
2
100
AcDbEntity
  8
0
370
     5
100
AcDbCircle
 10
218184.7395072289
 20
136612.6140360673
 30
0.0
 40
22.5
  0
CIRCLE
  5
116
102
{ACAD_REACTORS
330
106
102
}
330
2
100
AcDbEntity
  8
0
370
     5
100
AcDbCircle
 10
218184.7395072289
 20
136612.6140360673
 30
0.0
 40
17.5
  0
CIRCLE
  5
117
330
2
100
AcDbEntity
  8
0
370
     5
100
AcDbCircle
 10
217907.8514762231
 20
136612.6140360673
 30
0.0
 40
22.5
  0
CIRCLE
  5
118
102
{ACAD_REACTORS
330
107
102
}
330
2
100
AcDbEntity
  8
0
370
     5
100
AcDbCircle
 10
217907.8514762231
 20
136612.6140360673
 30
0.0
 40
17.5
  0
CIRCLE
  5
119
330
2
100
AcDbEntity
  8
0
370
     5
100
AcDbCircle
 10
217852.8514762231
 20
136612.6140360673
 30
0.0
 40
22.5
  0
CIRCLE
  5
11A
102
{ACAD_REACTORS
330
108
102
}
330
2
100
AcDbEntity
  8
0
370
     5
100
AcDbCircle
 10
217852.8514762231
 20
136612.6140360673
 30
0.0
 40
17.5
  0
LINE
  5
11B
330
2
100
AcDbEntity
  8
0
370
     5
100
AcDbLine
 10
217781.0991621591
 20
135166.2814160258
 30
0.0
 11
217798.6566982428
 21
135188.6919543443
 31
0.0
  0
LINE
  5
11C
330
2
100
AcDbEntity
  8
0
370
     5
100
AcDbLine
 10
218355.6277480755
 20
136671.5306062518
 30
0.0
 11
218377.5634401115
 21
136687.9514590982
 31
0.0
  0
LINE
  5
11D
330
2
100
AcDbEntity
  8
0
370
     5
100
AcDbLine
 10
218295.7923293949
 20
135188.6919543453
 30
0.0
 11
218310.1017542813
 21
135169.7498877949
 31
0.0
  0
LINE
  5
11E
330
2
100
AcDbEntity
  8
0
370
     5
100
AcDbLine
 10
218310.1017542813
 20
135169.7498877949
 30
0.0
 11
218333.1736878348
 21
135146.2707629779
 31
0.0
  0
LINE
  5
11F
330
2
100
AcDbEntity
  8
0
370
     5
100
AcDbLine
 10
218333.1736878348
 20
135146.2707629779
 30
0.0
 11
218355.8912181075
 21
135128.5930674843
 31
0.0
  0
LINE
  5
120
330
2
100
AcDbEntity
  8
0
370
     5
100
AcDbLine
 10
218315.8330564193
 20
135214.7748144439
 30
60.0
 11
218319.8314072537
 21
135208.0086441239
 31
0.0
  0
3DFACE
  5
121
330
2
100
AcDbEntity
  8
0
370
     5
100
AcDbFace
 10
216977.2245138185
 20
135539.1140360673
 30
0.0
 11
216977.2245138185
 21
135479.1140360674
 31
0.0
 12
216977.2245138185
 22
135479.1140360674
 32
0.0
 13
216977.2245138185
 23
135539.1140360673
 33
0.0
  0
3DFACE
  5
122
330
2
100
AcDbEntity
  8
0
370
     5
100
AcDbFace
 10
217247.2245138185
 20
135479.1140360674
 30
0.0
 11
217247.2245138185
 21
135539.1140360673
 31
0.0
 12
217247.2245138185
 22
135539.1140360673
 32
0.0
 13
217247.2245138185
 23
135479.1140360674
 33
0.0
  0
LINE
  5
123
330
2
100
AcDbEntity
  8
0
370
     5
100
AcDbLine
 10
218137.2245138185
 20
135479.1140360674
 30
0.0
 11
218137.2245138185
 21
135419.1140360674
 31
0.0
  0
LINE
  5
124
330
2
100
AcDbEntity
  8
0
370
     5
100
AcDbLine
 10
217957.2245138185
 20
135419.1140360675
 30
0.0
 11
217957.2245138185
 21
135479.1140360674
 31
0.0
  0
LINE
  5
125
330
2
100
AcDbEntity
  8
0Wymiary-PL
370
     5
100
AcDbLine
 10
216937.2245138185
 20
136958.9029223682
 30
0.0
 11
217287.2245138186
 21
136958.9029223682
 31
0.0
  0
LINE
  5
129
330
2
100
AcDbEntity
  8
0Wymiary-PL
370
     5
100
AcDbLine
 10
216907.2245138185
 20
136991.9029223682
 30
0.0
 11
216907.2245138185
 21
136925.9029223682
 31
0.0
  0
LWPOLYLINE
  5
12A
330
2
100
AcDbEntity
  8
0Wymiary-PL
370
     5
100
AcDbPolyline
 90
        2
 70
     0
 43
9.000000000000001
 10
216928.4377172541
 20
136980.1161258038
 10
216886.0113103829
 20
136937.6897189326
  0
LINE
  5
12B
330
2
100
AcDbEntity
  8
0Wymiary-PL
370
     5
100
AcDbLine
 10
216871.2245138185
 20
136958.9029223682
 30
0.0
 11
216943.2245138185
 21
136958.9029223682
 31
0.0
  0
LINE
  5
12C
330
2
100
AcDbEntity
  8
0Wymiary-PL
370
     5
100
AcDbLine
 10
217317.2245138186
 20
136925.9029223682
 30
0.0
 11
217317.2245138186
 21
136991.9029223682
 31
0.0
  0
LWPOLYLINE
  5
12D
330
2
100
AcDbEntity
  8
0Wymiary-PL
370
     5
100
AcDbPolyline
 90
        2
 70
     0
 43
9.000000000000001
 10
217296.011310383
 20
136937.6897189326
 10
217338.4377172542
 20
136980.1161258038
  0
LINE
  5
12E
330
2
100
AcDbEntity
  8
0Wymiary-PL
370
     5
100
AcDbLine
 10
217353.2245138186
 20
136958.9029223682
 30
0.0
 11
217281.2245138186
 21
136958.9029223682
 31
0.0
  0
TEXT
  5
12F
330
2
100
AcDbEntity
  8
0Wymiary-PL
370
     5
100
AcDbText
 10
217009.3673709615
 20
136998.9029223682
 30
0.0
 40
80.0
  1
410
 41
0.9
  7
ROMANS
100
AcDbText
  0
LINE
  5
131
330
2
100
AcDbEntity
  8
0Wymiary-PL
370
     5
100
AcDbLine
 10
217347.2245138186
 20
136958.9029223682
 30
0.0
 11
218747.2245138185
 21
136958.9029223682
 31
0.0
  0
LINE
  5
132
330
2
100
AcDbEntity
  8
0Wymiary-PL
370
     5
100
AcDbLine
 10
217317.2245138186
 20
136991.9029223682
 30
0.0
 11
217317.2245138186
 21
136925.9029223682
 31
0.0
  0
LWPOLYLINE
  5
133
330
2
100
AcDbEntity
  8
0Wymiary-PL
370
     5
100
AcDbPolyline
 90
        2
 70
     0
 43
9.000000000000001
 10
217338.4377172542
 20
136980.1161258038
 10
217296.011310383
 20
136937.6897189326
  0
LINE
  5
134
330
2
100
AcDbEntity
  8
0Wymiary-PL
370
     5
100
AcDbLine
 10
217281.2245138186
 20
136958.9029223682
 30
0.0
 11
217353.2245138186
 21
136958.9029223682
 31
0.0
  0
LINE
  5
135
330
2
100
AcDbEntity
  8
0Wymiary-PL
370
     5
100
AcDbLine
 10
218777.2245138186
 20
136925.9029223682
 30
0.0
 11
218777.2245138186
 21
136991.9029223682
 31
0.0
  0
LWPOLYLINE
  5
136
330
2
100
AcDbEntity
  8
0Wymiary-PL
370
     5
100
AcDbPolyline
 90
        2
 70
     0
 43
9.000000000000001
 10
218756.0113103829
 20
136937.6897189326
 10
218798.4377172541
 20
136980.1161258038
  0
LINE
  5
137
330
2
100
AcDbEntity
  8
0Wymiary-PL
370
     5
100
AcDbLine
 10
218813.2245138185
 20
136958.9029223682
 30
0.0
 11
218741.2245138185
 21
136958.9029223682
 31
0.0
  0
TEXT
  5
138
330
2
100
AcDbEntity
  8
0Wymiary-PL
370
     5
100
AcDbText
 10
217904.9387995329
 20
136998.9029223682
 30
0.0
 40
80.0
  1
1460
 41
0.9
  7
ROMANS
100
AcDbText
  0
LINE
  5
139
330
2
100
AcDbEntity
  8
0Wymiary-PL
370
     5
100
AcDbLine
 10
218747.2245138185
 20
136958.9029223682
 30
0.0
 11
218717.2245138185
 21
136958.9029223682
 31
0.0
  0
LINE
  5
13A
330
2
100
AcDbEntity
  8
0Wymiary-PL
370
     5
100
AcDbLine
 10
218897.2245138185
 20
136958.9029223682
 30
0.0
 11
218927.2245138186
 21
136958.9029223682
 31
0.0
  0
LINE
  5
13B
330
2
100
AcDbEntity
  8
0Wymiary-PL
370
     5
100
AcDbLine
 10
218777.2245138186
 20
136958.9029223682
 30
0.0
 11
218867.2245138185
 21
136958.9029223682
 31
0.0
  0
LINE
  5
13C
330
2
100
AcDbEntity
  8
0Wymiary-PL
370
     5
100
AcDbLine
 10
218777.2245138186
 20
136925.9029223682
 30
0.0
 11
218777.2245138186
 21
136991.9029223682
 31
0.0
  0
LWPOLYLINE
  5
13D
330
2
100
AcDbEntity
  8
0Wymiary-PL
370
     5
100
AcDbPolyline
 90
        2
 70
     0
 43
9.000000000000001
 10
218756.0113103829
 20
136937.6897189326
 10
218798.4377172541
 20
136980.1161258038
  0
LINE
  5
13E
330
2
100
AcDbEntity
  8
0Wymiary-PL
370
     5
100
AcDbLine
 10
218813.2245138185
 20
136958.9029223682
 30
0.0
 11
218741.2245138185
 21
136958.9029223682
 31
0.0
  0
LINE
  5
13F
330
2
100
AcDbEntity
  8
0Wymiary-PL
370
     5
100
AcDbLine
 10
218867.2245138185
 20
136991.9029223682
 30
0.0
 11
218867.2245138185
 21
136925.9029223682
 31
0.0
  0
LWPOLYLINE
  5
140
330
2
100
AcDbEntity
  8
0Wymiary-PL
370
     5
100
AcDbPolyline
 90
        2
 70
     0
 43
9.000000000000001
 10
218888.4377172541
 20
136980.1161258038
 10
218846.0113103829
 20
136937.6897189326
  0
LINE
  5
141
330
2
100
AcDbEntity
  8
0Wymiary-PL
370
     5
100
AcDbLine
 10
218831.2245138186
 20
136958.9029223682
 30
0.0
 11
218903.2245138186
 21
136958.9029223682
 31
0.0
  0
TEXT
  5
142
330
2
100
AcDbEntity
  8
0Wymiary-PL
370
     5
100
AcDbText
 10
218753.6530852471
 20
136998.9029223682
 30
0.0
 40
80.0
  1
90
 41
0.9
  7
ROMANS
100
AcDbText
  0
LINE
  5
143
330
2
100
AcDbEntity
  8
0Wymiary-PL
370
     5
100
AcDbLine
 10
216937.2245138185
 20
137176.6857549526
 30
0.0
 11
218837.2245138185
 21
137176.6857549526
 31
0.0
  0
LINE
  5
144
330
2
100
AcDbEntity
  8
0Wymiary-PL
370
     5
100
AcDbLine
 10
216907.2245138185
 20
137209.6857549526
 30
0.0
 11
216907.2245138185
 21
137143.6857549526
 31
0.0
  0
LWPOLYLINE
  5
145
330
2
100
AcDbEntity
  8
0Wymiary-PL
370
     5
100
AcDbPolyline
 90
        2
 70
     0
 43
9.000000000000001
 10
216928.4377172541
 20
137197.8989583882
 10
216886.0113103829
 20
137155.4725515171
  0
LINE
  5
146
330
2
100
AcDbEntity
  8
0Wymiary-PL
370
     5
100
AcDbLine
 10
216871.2245138185
 20
137176.6857549526
 30
0.0
 11
216943.2245138185
 21
137176.6857549526
 31
0.0
  0
LINE
  5
147
330
2
100
AcDbEntity
  8
0Wymiary-PL
370
     5
100
AcDbLine
 10
218867.2245138185
 20
137143.6857549526
 30
0.0
 11
218867.2245138185
 21
137209.6857549526
 31
0.0
  0
LWPOLYLINE
  5
148
330
2
100
AcDbEntity
  8
0Wymiary-PL
370
     5
100
AcDbPolyline
 90
        2
 70
     0
 43
9.000000000000001
 10
218846.0113103829
 20
137155.4725515171
 10
218888.4377172541
 20
137197.8989583882
  0
LINE
  5
149
330
2
100
AcDbEntity
  8
0Wymiary-PL
370
     5
100
AcDbLine
 10
218903.2245138186
 20
137176.6857549526
 30
0.0
 11
218831.2245138186
 21
137176.6857549526
 31
0.0
  0
TEXT
  5
14A
330
2
100
AcDbEntity
  8
0Wymiary-PL
370
     5
100
AcDbText
 10
217744.9387995328
 20
137216.6857549526
 30
0.0
 40
80.0
  1
1960
 41
0.9
  7
ROMANS
100
AcDbText
  0
LINE
  5
14B
330
2
100
AcDbEntity
  8
0Wymiary-PL
370
     5
100
AcDbLine
 10
216675.6444973385
 20
136449.1140360676
 30
0.0
 11
216675.6444973385
 21
136479.1140360676
 31
0.0
  0
LINE
  5
14C
330
2
100
AcDbEntity
  8
0Wymiary-PL
370
     5
100
AcDbLine
 10
216675.6444973385
 20
136329.1140360674
 30
0.0
 11
216675.6444973385
 21
136299.1140360674
 31
0.0
  0
LINE
  5
14D
330
2
100
AcDbEntity
  8
0Wymiary-PL
370
     5
100
AcDbLine
 10
216675.6444973385
 20
136419.1140360676
 30
0.0
 11
216675.6444973385
 21
136359.1140360674
 31
0.0
  0
INSERT
  5
14E
330
2
100
AcDbEntity
  8
0Wymiary-PL
370
     5
100
AcDbBlockReference
  2
B-DIM
 10
216675.6444973385
 20
136419.1140360676
 30
0.0
 41
30.0
 42
30.0
 43
30.0
 50
270.0
1001
AEC_XDATA_BOUND_SPACE
1070
   100
1070
     1
  0
INSERT
  5
158
330
2
100
AcDbEntity
  8
0Wymiary-PL
370
     5
100
AcDbBlockReference
  2
B-DIM
 10
216675.6444973385
 20
136359.1140360674
 30
0.0
 41
30.0
 42
30.0
 43
30.0
 50
90.0
1001
AEC_XDATA_BOUND_SPACE
1070
   100
1070
     1
  0
MTEXT
  5
159
330
2
100
AcDbEntity
  8
0Wymiary-PL
370
     5
100
AcDbMText
 10
216595.6444973385
 20
136389.1140360675
 30
0.0
 40
80.0
 41
0.0
 71
     5
 72
     1
  1
\A1;60
  7
ROMANS
 11
0.0000000000000001
 21
1.0
 31
0.0
 73
     1
 44
1.0
1001
ACAD
1000
MTEXTBEGIN
1070
    73
1070
     1
1070
    44
1040
1.0
1070
    74
1070
     0
1000
MTEXTEND
  0
LINE
  5
15A
330
2
100
AcDbEntity
  8
0Wymiary-PL
370
     5
100
AcDbLine
 10
216675.6444973385
 20
136329.1140360674
 30
0.0
 11
216675.6444973385
 21
135509.1140360673
 31
0.0
  0
INSERT
  5
15B
330
2
100
AcDbEntity
  8
0Wymiary-PL
370
     5
100
AcDbBlockReference
  2
B-DIM
 10
216675.6444973385
 20
136359.1140360674
 30
0.0
 41
30.0
 42
30.0
 43
30.0
 50
90.0
1001
AEC_XDATA_BOUND_SPACE
1070
   100
1070
     1
  0
INSERT
  5
15C
330
2
100
AcDbEntity
  8
0Wymiary-PL
370
     5
100
AcDbBlockReference
  2
B-DIM
 10
216675.6444973385
 20
135479.1140360673
 30
0.0
 41
30.0
 42
30.0
 43
30.0
 50
270.0
1001
AEC_XDATA_BOUND_SPACE
1070
   100
1070
     1
  0
MTEXT
  5
15D
330
2
100
AcDbEntity
  8
0Wymiary-PL
370
     5
100
AcDbMText
 10
216595.6444973385
 20
135919.1140360674
 30
0.0
 40
80.0
 41
0.0
 71
     5
 72
     1
  1
\A1;880
  7
ROMANS
 11
0.0000000000000001
 21
1.0
 31
0.0
 73
     1
 44
1.0
1001
ACAD
1000
MTEXTBEGIN
1070
    73
1070
     1
1070
    44
1040
1.0
1070
    74
1070
     0
1000
MTEXTEND
  0
LINE
  5
15E
330
2
100
AcDbEntity
  8
0Wymiary-PL
370
     5
100
AcDbLine
 10
216675.6444973385
 20
135509.1140360673
 30
0.0
 11
216675.6444973385
 21
135539.1140360673
 31
0.0
  0
LINE
  5
15F
330
2
100
AcDbEntity
  8
0Wymiary-PL
370
     5
100
AcDbLine
 10
216675.6444973385
 20
135389.1140360676
 30
0.0
 11
216675.6444973385
 21
135359.1140360675
 31
0.0
  0
LINE
  5
160
330
2
100
AcDbEntity
  8
0Wymiary-PL
370
     5
100
AcDbLine
 10
216675.6444973385
 20
135479.1140360673
 30
0.0
 11
216675.6444973385
 21
135419.1140360676
 31
0.0
  0
INSERT
  5
161
330
2
100
AcDbEntity
  8
0Wymiary-PL
370
     5
100
AcDbBlockReference
  2
B-DIM
 10
216675.6444973385
 20
135479.1140360673
 30
0.0
 41
30.0
 42
30.0
 43
30.0
 50
270.0
1001
AEC_XDATA_BOUND_SPACE
1070
   100
1070
     1
  0
INSERT
  5
162
330
2
100
AcDbEntity
  8
0Wymiary-PL
370
     5
100
AcDbBlockReference
  2
B-DIM
 10
216675.6444973385
 20
135419.1140360676
 30
0.0
 41
30.0
 42
30.0
 43
30.0
 50
90.0
1001
AEC_XDATA_BOUND_SPACE
1070
   100
1070
     1
  0
MTEXT
  5
163
330
2
100
AcDbEntity
  8
0Wymiary-PL
370
     5
100
AcDbMText
 10
216595.6444973385
 20
135449.1140360675
 30
0.0
 40
80.0
 41
0.0
 71
     5
 72
     1
  1
\A1;60
  7
ROMANS
 11
0.0000000000000001
 21
1.0
 31
0.0
 73
     1
 44
1.0
1001
ACAD
1000
MTEXTBEGIN
1070
    73
1070
     1
1070
    44
1040
1.0
1070
    74
1070
     0
1000
MTEXTEND
  0
LINE
  5
164
330
2
100
AcDbEntity
  8
0Wymiary-PL
370
     5
100
AcDbLine
 10
216434.77843971
 20
136389.1140360675
 30
0.0
 11
216434.77843971
 21
135449.1140360676
 31
0.0
  0
INSERT
  5
165
330
2
100
AcDbEntity
  8
0Wymiary-PL
370
     5
100
AcDbBlockReference
  2
B-DIM
 10
216434.77843971
 20
136419.1140360676
 30
0.0
 41
30.0
 42
30.0
 43
30.0
 50
90.0
1001
AEC_XDATA_BOUND_SPACE
1070
   100
1070
     1
  0
INSERT
  5
166
330
2
100
AcDbEntity
  8
0Wymiary-PL
370
     5
100
AcDbBlockReference
  2
B-DIM
 10
216434.77843971
 20
135419.1140360676
 30
0.0
 41
30.0
 42
30.0
 43
30.0
 50
270.0
1001
AEC_XDATA_BOUND_SPACE
1070
   100
1070
     1
  0
MTEXT
  5
167
330
2
100
AcDbEntity
  8
0Wymiary-PL
370
     5
100
AcDbMText
 10
216354.77843971
 20
135919.1140360676
 30
0.0
 40
80.0
 41
0.0
 71
     5
 72
     1
  1
\A1;1000
  7
ROMANS
 11
0.0000000000000001
 21
1.0
 31
0.0
 73
     1
 44
1.0
1001
ACAD
1000
MTEXTBEGIN
1070
    73
1070
     1
1070
    44
1040
1.0
1070
    74
1070
     0
1000
MTEXTEND
  0
HATCH
  5
168
330
2
100
AcDbEntity
  8
0
370
     5
100
AcDbHatch
 10
0.0
 20
0.0
 30
0.0
210
0.0
220
0.0
230
1.0
  2
SOLID
 70
     1
 71
     0
 91
        1
 92
        7
 72
     0
 73
     1
 93
       24
 10
222517.623583719
 20
135479.1140360674
 10
222517.623583719
 20
135419.1140360674
 10
221877.6235837191
 20
135419.1140360673
 10
221877.6235837191
 20
135742.9597071347
 10
221787.6235837191
 20
135832.9597071347
 10
221787.623583719
 20
136005.2683649999
 10
221877.6235837189
 20
136095.2683649998
 10
221877.6235837189
 20
136419.1140360673
 10
223337.6235837189
 20
136419.1140360676
 10
223337.6235837189
 20
136359.1140360674
 10
223747.623583719
 20
136359.1140360674
 10
223747.623583719
 20
135479.1140360674
 10
223677.623583719
 20
135479.1140360674
 10
223677.623583719
 20
135539.1140360674
 10
223687.623583719
 20
135539.1140360674
 10
223687.623583719
 20
136299.1140360674
 10
223277.6235837189
 20
136299.1140360674
 10
223277.6235837189
 20
136359.1140360676
 10
221937.6235837189
 20
136359.1140360673
 10
221937.623583719
 20
136070.4155512575
 10
221847.623583719
 20
135980.4155512574
 10
221847.623583719
 20
135857.8125208772
 10
221937.623583719
 20
135767.8125208772
 10
221937.6235837191
 20
135479.1140360673
 97
        0
 75
     0
 76
     1
 47
4.012970194582159
 98
        1
 10
222259.8304322971
 20
135459.4075828653
1001
ACAD
1010
0.0
1020
0.0
1030
0.0
  0
HATCH
  5
169
330
2
100
AcDbEntity
  8
0
370
     5
100
AcDbHatch
 10
0.0
 20
0.0
 30
0.0
210
0.0
220
0.0
230
1.0
  2
SOLID
 70
     1
 71
     0
 91
        1
 92
        7
 72
     0
 73
     1
 93
        8
 10
223277.6235837191
 20
135479.1140360676
 10
223277.6235837191
 20
135539.1140360673
 10
223407.623583719
 20
135539.1140360673
 10
223407.623583719
 20
135479.1140360673
 10
223337.6235837191
 20
135479.1140360673
 10
223337.6235837191
 20
135419.1140360677
 10
222697.623583719
 20
135419.1140360675
 10
222697.623583719
 20
135479.1140360675
 97
        0
 75
     0
 76
     1
 47
2.81436709003111
 98
        1
 10
223033.9173212713
 20
135450.0185220018
1001
ACAD
1010
0.0
1020
0.0
1030
0.0
  0
LINE
  5
16A
330
2
100
AcDbEntity
  8
0
370
     5
100
AcDbLine
 10
223337.6235837191
 20
135419.1140360676
 30
0.0
 11
221877.6235837191
 21
135419.1140360673
 31
0.0
  0
LINE
  5
16B
330
2
100
AcDbEntity
  8
0
370
     5
100
AcDbLine
 10
221877.6235837191
 20
135419.1140360673
 30
0.0
 11
221877.623583719
 21
135742.9597071347
 31
0.0
  0
LINE
  5
16C
330
2
100
AcDbEntity
  8
0
370
     5
100
AcDbLine
 10
221877.623583719
 20
135742.9597071347
 30
0.0
 11
221787.623583719
 21
135832.9597071347
 31
0.0
  0
LINE
  5
16D
330
2
100
AcDbEntity
  8
0
370
     5
100
AcDbLine
 10
221787.623583719
 20
135832.9597071347
 30
0.0
 11
221787.623583719
 21
136005.2683649998
 31
0.0
  0
LINE
  5
16E
330
2
100
AcDbEntity
  8
0
370
     5
100
AcDbLine
 10
221787.623583719
 20
136005.2683649998
 30
0.0
 11
221877.623583719
 21
136095.2683649998
 31
0.0
  0
LINE
  5
16F
330
2
100
AcDbEntity
  8
0
370
     5
100
AcDbLine
 10
221877.623583719
 20
136095.2683649998
 30
0.0
 11
221877.6235837189
 21
136419.1140360673
 31
0.0
  0
LINE
  5
170
330
2
100
AcDbEntity
  8
0
370
     5
100
AcDbLine
 10
221877.6235837189
 20
136419.1140360673
 30
0.0
 11
223337.6235837189
 21
136419.1140360676
 31
0.0
  0
LINE
  5
171
330
2
100
AcDbEntity
  8
0
370
     5
100
AcDbLine
 10
223337.6235837189
 20
136419.1140360676
 30
0.0
 11
223337.6235837189
 21
136359.1140360674
 31
0.0
  0
LINE
  5
172
330
2
100
AcDbEntity
  8
0
370
     5
100
AcDbLine
 10
223337.6235837189
 20
136359.1140360674
 30
0.0
 11
223747.623583719
 21
136359.1140360674
 31
0.0
  0
LINE
  5
173
330
2
100
AcDbEntity
  8
0
370
     5
100
AcDbLine
 10
223747.623583719
 20
136359.1140360674
 30
0.0
 11
223747.623583719
 21
135479.1140360674
 31
0.0
  0
LINE
  5
174
330
2
100
AcDbEntity
  8
0
370
     5
100
AcDbLine
 10
223747.623583719
 20
135479.1140360674
 30
0.0
 11
223337.6235837191
 21
135479.1140360673
 31
0.0
  0
LINE
  5
175
330
2
100
AcDbEntity
  8
0
370
     5
100
AcDbLine
 10
223337.6235837191
 20
135479.1140360673
 30
0.0
 11
223337.6235837191
 21
135419.1140360676
 31
0.0
  0
LWPOLYLINE
  5
176
330
2
100
AcDbEntity
  8
0
370
     5
100
AcDbPolyline
 90
       12
 70
     1
 43
0.0
 10
223277.6235837191
 20
135479.1140360676
 10
221937.6235837191
 20
135479.1140360673
 10
221937.623583719
 20
135767.8125208772
 10
221847.623583719
 20
135857.8125208772
 10
221847.623583719
 20
135980.4155512575
 10
221937.623583719
 20
136070.4155512575
 10
221937.6235837189
 20
136359.1140360673
 10
223277.6235837189
 20
136359.1140360676
 10
223277.6235837189
 20
136299.1140360674
 10
223687.623583719
 20
136299.1140360674
 10
223687.623583719
 20
135539.1140360674
 10
223277.6235837191
 20
135539.1140360673
  0
ARC
  5
177
330
2
100
AcDbEntity
  8
0
370
     5
100
AcDbCircle
 10
222607.6235837191
 20
135934.2821684052
 30
0.0
 40
749.8385944337559
100
AcDbArc
 50
70.98251923075155
 51
109.0174807692484
  0
ARC
  5
178
330
2
100
AcDbEntity
  8
0
370
     5
100
AcDbCircle
 10
-223041.482906533
 20
136523.8504724277
 30
0.0
 40
223.9653901831519
210
0.0
220
0.0
230
-1.0
100
AcDbArc
 50
332.1184223948133
 51
32.19929204268521
  0
ARC
  5
179
330
2
100
AcDbEntity
  8
0
370
     5
100
AcDbCircle
 10
-222173.7642609051
 20
136523.8504724277
 30
0.0
 40
223.96539018315
210
0.0
220
0.0
230
-1.0
100
AcDbArc
 50
147.8007079573148
 51
207.8815776051867
  0
ARC
  5
17A
330
2
100
AcDbEntity
  8
0
370
     5
100
AcDbCircle
 10
-222174.3516272157
 20
136524.1140360676
 30
0.0
 40
223.3279350211841
210
0.0
220
0.0
230
-1.0
100
AcDbArc
 50
139.7276044890094
 51
147.7776283313442
  0
ARC
  5
17B
330
2
100
AcDbEntity
  8
0
370
     5
100
AcDbCircle
 10
222607.6235837191
 20
135934.2821684052
 30
0.0
 40
779.8385944337549
100
AcDbArc
 50
70.30020696463624
 51
109.6997930353637
  0
ARC
  5
17C
330
2
100
AcDbEntity
  8
0
370
     5
100
AcDbCircle
 10
-223040.8955402224
 20
136524.1140360676
 30
0.0
 40
223.3279350211826
210
0.0
220
0.0
230
-1.0
100
AcDbArc
 50
32.22237166865572
 51
40.27239551099056
  0
ARC
  5
17D
330
2
100
AcDbEntity
  8
0
370
     5
100
AcDbCircle
 10
-222607.6235837191
 20
135934.2821684052
 30
0.0
 40
749.8385944337537
210
0.0
220
0.0
230
-1.0
100
AcDbArc
 50
70.98251923075155
 51
109.0174807692484
  0
ARC
  5
17E
330
2
100
AcDbEntity
  8
0
370
     5
100
AcDbCircle
 10
-223045.0970442628
 20
136520.2794695609
 30
0.0
 40
229.0124431742099
210
0.0
220
0.0
230
-1.0
100
AcDbArc
 50
40.32487241659211
 51
55.77498958469151
  0
ARC
  5
17F
330
2
100
AcDbEntity
  8
0
370
     5
100
AcDbCircle
 10
-222607.6235837191
 20
135934.2821684052
 30
0.0
 40
779.8385944337544
210
0.0
220
0.0
230
-1.0
100
AcDbArc
 50
70.30020696463624
 51
109.6997930353637
  0
ARC
  5
180
330
2
100
AcDbEntity
  8
0
370
     5
100
AcDbCircle
 10
222607.6235837191
 20
135934.2821684052
 30
0.0
 40
809.838594433755
100
AcDbArc
 50
69.32332290440914
 51
110.6766770955908
  0
ARC
  5
181
330
2
100
AcDbEntity
  8
0
370
     5
100
AcDbCircle
 10
-222174.3516272157
 20
136524.1140360676
 30
0.0
 40
223.327935021195
210
0.0
220
0.0
230
-1.0
100
AcDbArc
 50
122.1962000341295
 51
131.2747248522972
  0
ARC
  5
182
330
2
100
AcDbEntity
  8
0
370
     5
100
AcDbCircle
 10
222607.6235837191
 20
135934.2821684052
 30
0.0
 40
839.8385944337547
100
AcDbArc
 50
68.02433405144746
 51
111.9756659485525
  0
LINE
  5
183
330
2
100
AcDbEntity
  8
0
370
     5
100
AcDbLine
 10
223747.6235837191
 20
135419.1140360676
 30
0.0
 11
223747.6235837191
 21
135479.1140360676
 31
0.0
  0
LINE
  5
184
330
2
100
AcDbEntity
  8
0
370
     5
100
AcDbLine
 10
223337.6235837191
 20
135419.1140360676
 30
0.0
 11
223747.6235837191
 21
135419.1140360676
 31
0.0
  0
LINE
  5
185
330
2
100
AcDbEntity
  8
0
370
     5
100
AcDbLine
 10
223337.6235837191
 20
135419.1140360676
 30
0.0
 11
223747.6235837191
 21
135419.1140360676
 31
0.0
  0
LINE
  5
186
330
2
100
AcDbEntity
  8
0
370
     5
100
AcDbLine
 10
223337.6235837191
 20
135262.1140360676
 30
0.0
 11
223337.6235837191
 21
135419.1140360676
 31
0.0
  0
LINE
  5
187
330
2
100
AcDbEntity
  8
0
370
     5
100
AcDbLine
 10
223747.6235837191
 20
135262.1140360676
 30
0.0
 11
223337.6235837191
 21
135262.1140360676
 31
0.0
  0
LINE
  5
188
330
2
100
AcDbEntity
  8
0
370
     5
100
AcDbLine
 10
223747.6235837191
 20
135419.1140360676
 30
0.0
 11
223747.6235837191
 21
135262.1140360676
 31
0.0
  0
LINE
  5
189
330
2
100
AcDbEntity
  8
0
370
     5
100
AcDbLine
 10
223642.6235837191
 20
136479.1140360676
 30
0.0
 11
223422.6235837191
 21
136479.1140360676
 31
0.0
  0
LINE
  5
18A
330
2
100
AcDbEntity
  8
0
370
     5
100
AcDbLine
 10
223642.6235837191
 20
136359.1140360674
 30
0.0
 11
223642.6235837191
 21
136479.1140360676
 31
0.0
  0
LINE
  5
18B
330
2
100
AcDbEntity
  8
0
370
     5
100
AcDbLine
 10
223442.6235837191
 20
136479.1140360676
 30
0.0
 11
223442.6235837191
 21
136439.1140360676
 31
0.0
  0
LINE
  5
18C
330
2
100
AcDbEntity
  8
0
370
     5
100
AcDbLine
 10
223442.6235837191
 20
136359.1140360676
 30
0.0
 11
223442.6235837191
 21
136479.1140360676
 31
0.0
  0
LINE
  5
18D
330
2
100
AcDbEntity
  8
0
370
     5
100
AcDbLine
 10
223422.6235837191
 20
136479.1140360676
 30
0.0
 11
223422.6235837191
 21
136359.1140360676
 31
0.0
  0
LINE
  5
18E
330
2
100
AcDbEntity
  8
0
370
     5
100
AcDbLine
 10
223662.623583719
 20
136479.1140360676
 30
0.0
 11
223662.623583719
 21
136359.1140360676
 31
0.0
  0
LINE
  5
18F
330
2
100
AcDbEntity
  8
0
370
     5
100
AcDbLine
 10
223642.6235837191
 20
136479.1140360676
 30
0.0
 11
223662.623583719
 21
136479.1140360676
 31
0.0
  0
LINE
  5
190
330
2
100
AcDbEntity
  8
0
370
     5
100
AcDbLine
 10
221537.6235837191
 20
136278.3999250196
 30
0.0
 11
221537.6235837191
 21
136431.3494974065
 31
0.0
  0
ARC
  5
191
330
2
100
AcDbEntity
  8
0
370
     5
100
AcDbCircle
 10
-221657.4042682921
 20
136612.3514322197
 30
0.0
 40
217.0463379163108
210
0.0
220
0.0
230
-1.0
100
AcDbArc
 50
294.4341747115779
 51
303.4951830038732
  0
LINE
  5
192
330
2
100
AcDbEntity
  8
0
370
     5
100
AcDbLine
 10
221567.6235837191
 20
136414.7443941859
 30
0.0
 11
221567.6235837191
 21
136290.7640057972
 31
0.0
  0
ARC
  5
193
330
2
100
AcDbEntity
  8
0
370
     5
100
AcDbCircle
 10
-221703.2460837191
 20
135919.1140360675
 30
0.0
 40
395.6225000000867
210
0.0
220
0.0
230
-1.0
100
AcDbArc
 50
65.25138932411869
 51
69.95196369681846
  0
LINE
  5
194
330
2
100
AcDbEntity
  8
0
370
     5
100
AcDbLine
 10
221507.6235837191
 20
136262.9875593287
 30
0.0
 11
221507.6235837191
 21
136455.0768415603
 31
0.0
  0
ARC
  5
195
330
2
100
AcDbEntity
  8
0
370
     5
100
AcDbCircle
 10
-221640.9967042907
 20
136592.8798828806
 30
0.0
 40
191.7760868516617
210
0.0
220
0.0
230
-1.0
100
AcDbArc
 50
302.6176511592133
 51
314.064102144037
  0
LINE
  5
196
330
2
100
AcDbEntity
  8
0
370
     5
100
AcDbLine
 10
221537.6235837191
 20
136431.3494974065
 30
0.0
 11
221537.6235837191
 21
136278.3999250196
 31
0.0
  0
LINE
  5
197
330
2
100
AcDbEntity
  8
0
370
     5
100
AcDbLine
 10
221477.6235837191
 20
136244.093496957
 30
0.0
 11
221477.6235837191
 21
136492.654508429
 31
0.0
  0
ARC
  5
198
330
2
100
AcDbEntity
  8
0
370
     5
100
AcDbCircle
 10
-221649.7163851715
 20
136599.2801681309
 30
0.0
 40
202.4474342109817
210
0.0
220
0.0
230
-1.0
100
AcDbArc
 50
314.5776331568193
 51
328.2183762085994
  0
LINE
  5
199
330
2
100
AcDbEntity
  8
0
370
     5
100
AcDbLine
 10
221507.6235837191
 20
136455.0768415603
 30
0.0
 11
221507.6235837191
 21
136262.9875593287
 31
0.0
  0
ARC
  5
19A
330
2
100
AcDbEntity
  8
0
370
     5
100
AcDbCircle
 10
-221703.2460837191
 20
135919.1140360676
 30
0.0
 40
395.6224999999506
210
0.0
220
0.0
230
-1.0
100
AcDbArc
 50
55.22903006406663
 51
60.36535193991817
  0
ARC
  5
19B
330
2
100
AcDbEntity
  8
0
370
     5
100
AcDbCircle
 10
221703.2460837192
 20
135919.1140360678
 30
0.0
 40
395.6225000002205
100
AcDbArc
 50
245.2513893241187
 51
249.9519636968184
  0
LINE
  5
19C
330
2
100
AcDbEntity
  8
0
370
     5
100
AcDbLine
 10
221567.6235837191
 20
135423.7699735961
 30
0.0
 11
221567.6235837191
 21
135547.464066338
 31
0.0
  0
LINE
  5
19D
330
2
100
AcDbEntity
  8
0
370
     5
100
AcDbLine
 10
221537.6235837191
 20
135559.8281471156
 30
0.0
 11
221537.491836298
 21
135413.1149699288
 31
0.0
  0
LINE
  5
19E
330
2
100
AcDbEntity
  8
0
370
     5
100
AcDbLine
 10
221537.491836298
 20
135413.1149699288
 30
0.0
 11
221537.6235837191
 21
135559.8281471156
 31
0.0
  0
ARC
  5
19F
330
2
100
AcDbEntity
  8
0
370
     5
100
AcDbCircle
 10
221614.7204767723
 20
135234.668441529
 30
0.0
 40
194.4413186734335
100
AcDbArc
 50
113.4021450959933
 51
123.4214245687759
  0
LINE
  5
1A0
330
2
100
AcDbEntity
  8
0
370
     5
100
AcDbLine
 10
221507.6235837191
 20
135575.2405128065
 30
0.0
 11
221507.6235837191
 21
135396.9573256394
 31
0.0
  0
LINE
  5
1A1
330
2
100
AcDbEntity
  8
0
370
     5
100
AcDbLine
 10
221507.6235837191
 20
135396.9573256394
 30
0.0
 11
221507.6235837191
 21
135575.2405128065
 31
0.0
  0
ARC
  5
1A2
330
2
100
AcDbEntity
  8
0
370
     5
100
AcDbCircle
 10
221621.3604619465
 20
135221.5249350629
 30
0.0
 40
209.0755871265642
100
AcDbArc
 50
122.9562748254311
 51
133.3612930819511
  0
LINE
  5
1A3
330
2
100
AcDbEntity
  8
0
370
     5
100
AcDbLine
 10
221477.6235837191
 20
135594.1345751781
 30
0.0
 11
221477.8098941362
 21
135373.5309731457
 31
0.0
  0
ARC
  5
1A4
330
2
100
AcDbEntity
  8
0
370
     5
100
AcDbCircle
 10
221703.2460837191
 20
135919.1140360676
 30
0.0
 40
395.6224999999942
100
AcDbArc
 50
110.0480363031815
 51
132.2410225660314
  0
LINE
  5
1A5
330
2
100
AcDbEntity
  8
0
370
     5
100
AcDbLine
 10
221567.6235837191
 20
136290.7640057972
 30
0.0
 11
221567.6235837191
 21
136204.1124571158
 31
0.0
  0
ARC
  5
1A6
330
2
100
AcDbEntity
  8
0
370
     5
100
AcDbCircle
 10
-221703.2460837191
 20
135919.1140360676
 30
0.0
 40
315.6224999999959
210
0.0
220
0.0
230
-1.0
100
AcDbArc
 50
295.4484247405152
 51
64.55157525948473
  0
LINE
  5
1A7
330
2
100
AcDbEntity
  8
0
370
     5
100
AcDbLine
 10
221567.6235837191
 20
135634.1156150193
 30
0.0
 11
221567.6235837191
 21
135547.464066338
 31
0.0
  0
ARC
  5
1A8
330
2
100
AcDbEntity
  8
0
370
     5
100
AcDbCircle
 10
221703.2460837191
 20
135919.1140360676
 30
0.0
 40
395.6224999999956
100
AcDbArc
 50
227.7589774339686
 51
249.9519636968184
  0
ARC
  5
1A9
330
2
100
AcDbEntity
  8
0
370
     5
100
AcDbCircle
 10
221703.2460837191
 20
135919.1140360676
 30
0.0
 40
335.6224999999958
100
AcDbArc
 50
132.2410225660314
 51
227.7589774339686
  0
3DFACE
  5
1AA
330
2
100
AcDbEntity
  8
0
370
     5
100
AcDbFace
 10
221437.2885346684
 20
136212.0026575762
 30
0.0
 11
221415.8786583328
 21
136191.0278557479
 31
0.0
 12
221459.4607233649
 22
136149.7894803248
 32
60.0
 13
221477.6235837191
 23
136167.5832494523
 33
60.0
  0
3DFACE
  5
1AB
330
2
100
AcDbEntity
  8
0
370
     5
100
AcDbFace
 10
221415.8786583328
 20
136191.0278557479
 30
0.0
 11
221396.1181179022
 21
136168.4924134772
 31
0.0
 12
221442.6970610842
 22
136130.6717570571
 32
60.0
 13
221459.4607233649
 23
136149.7894803248
 33
60.0
  0
3DFACE
  5
1AC
330
2
100
AcDbEntity
  8
0
370
     5
100
AcDbFace
 10
221396.1181179022
 20
136168.4924134772
 30
0.0
 11
221378.1203283498
 21
136144.5256721953
 31
0.0
 12
221427.4288113662
 22
136110.3398051942
 32
60.0
 13
221442.6970610842
 23
136130.6717570571
 33
60.0
  0
3DFACE
  5
1AD
330
2
100
AcDbEntity
  8
0
370
     5
100
AcDbFace
 10
221378.1203283498
 20
136144.5256721953
 30
0.0
 11
221361.9885873979
 21
136119.2651882272
 31
0.0
 12
221413.743605829
 22
136088.9103193065
 32
60.0
 13
221427.4288113662
 23
136110.3398051942
 33
60.0
  0
3DFACE
  5
1AE
330
2
100
AcDbEntity
  8
0
370
     5
100
AcDbFace
 10
221361.9885873979
 20
136119.2651882272
 30
0.0
 11
221347.8154826441
 21
136092.8559432913
 31
0.0
 12
221401.7199902606
 22
136066.5062932248
 32
60.0
 13
221413.743605829
 23
136088.9103193065
 33
60.0
  0
3DFACE
  5
1AF
330
2
100
AcDbEntity
  8
0
370
     5
100
AcDbFace
 10
221347.8154826441
 20
136092.8559432913
 30
0.0
 11
221335.682360158
 21
136065.4495123821
 31
0.0
 12
221391.4269738078
 22
136043.2563141215
 32
60.0
 13
221401.7199902606
 23
136066.5062932248
 33
60.0
  0
3DFACE
  5
1B0
330
2
100
AcDbEntity
  8
0
370
     5
100
AcDbFace
 10
221335.682360158
 20
136065.4495123821
 30
0.0
 11
221325.6588575978
 21
136037.2031938101
 31
0.0
 12
221382.9236329008
 22
136019.2938244882
 32
60.0
 13
221391.4269738078
 23
136043.2563141215
 33
60.0
  0
3DFACE
  5
1B1
330
2
100
AcDbEntity
  8
0
370
     5
100
AcDbFace
 10
221325.6588575978
 20
136037.2031938101
 30
0.0
 11
221317.8025045275
 21
136008.2791063936
 31
0.0
 12
221376.2587721854
 22
135994.7563562477
 32
60.0
 13
221382.9236329008
 23
136019.2938244882
 33
60.0
  0
3DFACE
  5
1B2
330
2
100
AcDbEntity
  8
0
370
     5
100
AcDbFace
 10
221317.8025045275
 20
136008.2791063936
 30
0.0
 11
221312.1583922275
 21
135978.8432589828
 31
0.0
 12
221371.4706444111
 22
135969.7847413936
 32
60.0
 13
221376.2587721854
 23
135994.7563562477
 33
60.0
  0
3DFACE
  5
1B3
330
2
100
AcDbEntity
  8
0
370
     5
100
AcDbFace
 10
221312.1583922275
 20
135978.8432589828
 30
0.0
 11
221308.7589148952
 21
135949.0645976578
 31
0.0
 12
221368.58673088
 22
135944.5223036896
 32
60.0
 13
221371.4706444111
 23
135969.7847413936
 33
60.0
  0
3DFACE
  5
1B4
330
2
100
AcDbEntity
  8
0
370
     5
100
AcDbFace
 10
221308.7589148952
 20
135949.0645976578
 30
0.0
 11
221307.6235837191
 21
135919.1140360676
 31
0.0
 12
221367.6235837191
 22
135919.1140360676
 32
60.0
 13
221368.58673088
 23
135944.5223036896
 33
60.0
  0
3DFACE
  5
1B5
330
2
100
AcDbEntity
  8
0
370
     5
100
AcDbFace
 10
221307.6235837191
 20
135919.1140360676
 30
0.0
 11
221308.7589148952
 21
135889.1634744775
 31
0.0
 12
221368.58673088
 22
135893.7057684456
 32
60.0
 13
221367.6235837191
 23
135919.1140360676
 33
60.0
  0
3DFACE
  5
1B6
330
2
100
AcDbEntity
  8
0
370
     5
100
AcDbFace
 10
221308.7589148952
 20
135889.1634744775
 30
0.0
 11
221312.1583922275
 21
135859.3848131524
 31
0.0
 12
221371.4706444111
 22
135868.4433307415
 32
60.0
 13
221368.58673088
 23
135893.7057684456
 33
60.0
  0
3DFACE
  5
1B7
330
2
100
AcDbEntity
  8
0
370
     5
100
AcDbFace
 10
221312.1583922275
 20
135859.3848131524
 30
0.0
 11
221317.8025045275
 21
135829.9489657416
 31
0.0
 12
221376.2587721854
 22
135843.4717158874
 32
60.0
 13
221371.4706444111
 23
135868.4433307415
 33
60.0
  0
3DFACE
  5
1B8
330
2
100
AcDbEntity
  8
0
370
     5
100
AcDbFace
 10
221317.8025045275
 20
135829.9489657416
 30
0.0
 11
221325.6588575978
 21
135801.0248783251
 31
0.0
 12
221382.9236329008
 22
135818.934247647
 32
60.0
 13
221376.2587721854
 23
135843.4717158874
 33
60.0
  0
3DFACE
  5
1B9
330
2
100
AcDbEntity
  8
0
370
     5
100
AcDbFace
 10
221325.6588575978
 20
135801.0248783251
 30
0.0
 11
221335.682360158
 21
135772.7785597531
 31
0.0
 12
221391.4269738078
 22
135794.9717580138
 32
60.0
 13
221382.9236329008
 23
135818.934247647
 33
60.0
  0
3DFACE
  5
1BA
330
2
100
AcDbEntity
  8
0
370
     5
100
AcDbFace
 10
221335.682360158
 20
135772.7785597531
 30
0.0
 11
221347.8154826441
 21
135745.3721288439
 31
0.0
 12
221401.7199902606
 22
135771.7217789104
 32
60.0
 13
221391.4269738078
 23
135794.9717580138
 33
60.0
  0
3DFACE
  5
1BB
330
2
100
AcDbEntity
  8
0
370
     5
100
AcDbFace
 10
221347.8154826441
 20
135745.3721288439
 30
0.0
 11
221361.9885873979
 21
135718.962883908
 31
0.0
 12
221413.743605829
 22
135749.3177528287
 32
60.0
 13
221401.7199902606
 23
135771.7217789104
 33
60.0
  0
3DFACE
  5
1BC
330
2
100
AcDbEntity
  8
0
370
     5
100
AcDbFace
 10
221361.9885873979
 20
135718.962883908
 30
0.0
 11
221378.1203283498
 21
135693.7023999399
 31
0.0
 12
221427.4288113662
 22
135727.888266941
 32
60.0
 13
221413.743605829
 23
135749.3177528287
 33
60.0
  0
3DFACE
  5
1BD
330
2
100
AcDbEntity
  8
0
370
     5
100
AcDbFace
 10
221378.1203283498
 20
135693.7023999399
 30
0.0
 11
221396.1181179023
 21
135669.735658658
 31
0.0
 12
221442.6970610842
 22
135707.5563150782
 32
60.0
 13
221427.4288113662
 23
135727.888266941
 33
60.0
  0
3DFACE
  5
1BE
330
2
100
AcDbEntity
  8
0
370
     5
100
AcDbFace
 10
221396.1181179023
 20
135669.735658658
 30
0.0
 11
221415.8786583328
 21
135647.2002163873
 31
0.0
 12
221459.4607233649
 22
135688.4385918104
 32
60.0
 13
221442.6970610842
 23
135707.5563150782
 33
60.0
  0
3DFACE
  5
1BF
330
2
100
AcDbEntity
  8
0
370
     5
100
AcDbFace
 10
221415.8786583328
 20
135647.2002163873
 30
0.0
 11
221437.2885346684
 21
135626.225414559
 31
0.0
 12
221477.6235837191
 22
135670.644822683
 32
60.0
 13
221459.4607233649
 23
135688.4385918104
 33
60.0
  0
LINE
  5
1C0
330
2
100
AcDbEntity
  8
0
370
     5
100
AcDbLine
 10
221458.750421574
 20
136531.2199956665
 30
0.0
 11
221477.6079884074
 21
136537.8827408306
 31
0.0
  0
ARC
  5
1C1
330
2
100
AcDbEntity
  8
0
370
     5
100
AcDbCircle
 10
-221646.4343125464
 20
136597.5323650195
 30
0.0
 40
179.0541967902045
210
0.0
220
0.0
230
-1.0
100
AcDbArc
 50
274.8301143814328
 51
340.5406946775229
  0
LINE
  5
1C2
330
2
100
AcDbEntity
  8
0
370
     5
100
AcDbLine
 10
221631.3576656355
 20
136419.1140360673
 30
0.0
 11
221877.623583719
 21
136419.1140360673
 31
0.0
  0
LINE
  5
1C3
330
2
100
AcDbEntity
  8
0
370
     5
100
AcDbLine
 10
221877.623583719
 20
136399.1140360673
 30
0.0
 11
221630.5365140952
 21
136399.1140360673
 31
0.0
  0
ARC
  5
1C4
330
2
100
AcDbEntity
  8
0
370
     5
100
AcDbCircle
 10
221646.4343125464
 20
136597.5323650195
 30
0.0
 40
199.0541967902013
100
AcDbArc
 50
199.4593053224771
 51
265.419097282697
  0
3DFACE
  5
1C5
330
2
100
AcDbEntity
  8
0
370
     5
100
AcDbFace
 10
221462.5322142715
 20
136521.3576217652
 30
31.04207298374534
 11
221458.750421574
 21
136531.2199956665
 31
30.0
 12
221458.750421574
 22
136531.2199956665
 32
0.0
 13
221462.5322142715
 23
136521.3576217652
 33
0.0
  0
3DFACE
  5
1C6
330
2
100
AcDbEntity
  8
0
370
     5
100
AcDbFace
 10
221474.0483213962
 20
136498.0052666244
 30
34.21533632004038
 11
221462.5322142715
 21
136521.3576217652
 31
31.04207298374534
 12
221462.5322142715
 22
136521.3576217652
 32
0.0
 13
221474.0483213962
 23
136498.0052666244
 33
0.0
  0
3DFACE
  5
1C7
330
2
100
AcDbEntity
  8
0
370
     5
100
AcDbFace
 10
221488.514000624
 20
136476.3558477314
 30
38.20135425394925
 11
221474.0483213962
 21
136498.0052666244
 31
34.21533632004038
 12
221474.0483213962
 22
136498.0052666244
 32
0.0
 13
221488.514000624
 23
136476.3558477314
 33
0.0
  0
3DFACE
  5
1C8
330
2
100
AcDbEntity
  8
0
370
     5
100
AcDbFace
 10
221505.6817401725
 20
136456.7797926456
 30
42.93192491348981
 11
221488.514000624
 21
136476.3558477314
 31
38.20135425394925
 12
221488.514000624
 22
136476.3558477314
 32
0.0
 13
221505.6817401725
 23
136456.7797926456
 33
0.0
  0
3DFACE
  5
1C9
330
2
100
AcDbEntity
  8
0
370
     5
100
AcDbFace
 10
221525.2577952583
 20
136439.612053097
 30
48.32610692311535
 11
221505.6817401725
 21
136456.7797926456
 31
42.93192491348981
 12
221505.6817401725
 22
136456.7797926456
 32
0.0
 13
221525.2577952583
 23
136439.612053097
 33
0.0
  0
3DFACE
  5
1CA
330
2
100
AcDbEntity
  8
0
370
     5
100
AcDbFace
 10
221546.9072141513
 20
136425.1463738693
 30
54.29160433309139
 11
221525.2577952583
 21
136439.612053097
 31
48.32610692311535
 12
221525.2577952583
 22
136439.612053097
 32
0.0
 13
221546.9072141513
 23
136425.1463738693
 33
0.0
  0
3DFACE
  5
1CB
330
2
100
AcDbEntity
  8
0
370
     5
100
AcDbFace
 10
221567.6235837191
 20
136414.7443941859
 30
60.0
 11
221546.9072141513
 21
136425.1463738693
 31
54.29160433309139
 12
221546.9072141513
 22
136425.1463738693
 32
0.0
 13
221567.6235837191
 23
136414.7443941859
 33
0.0
  0
3DFACE
  5
1CC
330
2
100
AcDbEntity
  8
0
370
     5
100
AcDbFace
 10
221567.6235837191
 20
136414.7443941859
 30
60.0
 11
221567.6235837191
 21
136414.7443941859
 31
0.0
 12
221567.6235837191
 22
136436.7552696052
 32
0.0
 13
221567.6235837191
 23
136436.7552696052
 33
60.0
  0
3DFACE
  5
1CD
330
2
100
AcDbEntity
  8
0
370
     5
100
AcDbFace
 10
221549.6303052249
 20
136446.9023894016
 30
55.04195208269412
 11
221567.6235837191
 21
136436.7552696052
 31
60.0
 12
221567.6235837191
 22
136436.7552696052
 32
0.0
 13
221549.6303052249
 23
136446.9023894016
 33
0.0
  0
3DFACE
  5
1CE
330
2
100
AcDbEntity
  8
0
370
     5
100
AcDbFace
 10
221529.1787498204
 20
136462.212232009
 30
49.40652595887693
 11
221549.6303052249
 21
136446.9023894016
 31
55.04195208269412
 12
221549.6303052249
 22
136446.9023894016
 32
0.0
 13
221529.1787498204
 23
136462.212232009
 33
0.0
  0
3DFACE
  5
1CF
330
2
100
AcDbEntity
  8
0
370
     5
100
AcDbFace
 10
221511.1141795359
 20
136480.2768022935
 30
44.42883358861782
 11
221529.1787498204
 21
136462.212232009
 31
49.40652595887693
 12
221529.1787498204
 22
136462.212232009
 32
0.0
 13
221511.1141795359
 23
136480.2768022935
 33
0.0
  0
3DFACE
  5
1D0
330
2
100
AcDbEntity
  8
0
370
     5
100
AcDbFace
 10
221495.8043369284
 20
136500.7283576981
 30
40.21020643409582
 11
221511.1141795359
 21
136480.2768022935
 31
44.42883358861782
 12
221511.1141795359
 22
136480.2768022935
 32
0.0
 13
221495.8043369284
 23
136500.7283576981
 33
0.0
  0
3DFACE
  5
1D1
330
2
100
AcDbEntity
  8
0
370
     5
100
AcDbFace
 10
221483.5608862436
 20
136523.1505635319
 30
36.8365235786609
 11
221495.8043369284
 21
136500.7283576981
 31
40.21020643409582
 12
221495.8043369284
 22
136500.7283576981
 32
0.0
 13
221483.5608862436
 23
136523.1505635319
 33
0.0
  0
3DFACE
  5
1D2
330
2
100
AcDbEntity
  8
0
370
     5
100
AcDbFace
 10
221477.6079884074
 20
136537.8827408306
 30
35.19620257056037
 11
221483.5608862436
 21
136523.1505635319
 31
36.8365235786609
 12
221483.5608862436
 22
136523.1505635319
 32
0.0
 13
221477.6079884074
 23
136537.8827408306
 33
0.0
  0
3DFACE
  5
1D3
330
2
100
AcDbEntity
  8
0
370
     5
100
AcDbFace
 10
221458.750421574
 20
136531.2199956665
 30
30.0
 11
221477.6079884074
 21
136537.8827408306
 31
35.19620257056037
 12
221477.6079884074
 22
136537.8827408306
 32
0.0
 13
221458.750421574
 23
136531.2199956665
 33
0.0
  0
3DFACE
  5
1D4
330
2
100
AcDbEntity
  8
0
370
     5
100
AcDbFace
 10
221483.5608862436
 20
136523.1505635319
 30
36.8365235786609
 11
221483.5608862436
 21
136523.1505635319
 31
36.8365235786609
 12
221477.6079884074
 22
136537.8827408306
 32
35.19620257056037
 13
221458.750421574
 23
136531.2199956665
 33
30.0
 70
     9
  0
3DFACE
  5
1D5
330
2
100
AcDbEntity
  8
0
370
     5
100
AcDbFace
 10
221495.8043369284
 20
136500.7283576981
 30
40.21020643409582
 11
221495.8043369284
 21
136500.7283576981
 31
40.21020643409582
 12
221483.5608862436
 22
136523.1505635319
 32
36.8365235786609
 13
221458.750421574
 23
136531.2199956665
 33
30.0
 70
    13
  0
3DFACE
  5
1D6
330
2
100
AcDbEntity
  8
0
370
     5
100
AcDbFace
 10
221511.1141795359
 20
136480.2768022935
 30
44.42883358861782
 11
221511.1141795359
 21
136480.2768022935
 31
44.42883358861782
 12
221495.8043369284
 22
136500.7283576981
 32
40.21020643409582
 13
221458.750421574
 23
136531.2199956665
 33
30.0
 70
    13
  0
3DFACE
  5
1D7
330
2
100
AcDbEntity
  8
0
370
     5
100
AcDbFace
 10
221511.1141795359
 20
136480.2768022935
 30
44.42883358861782
 11
221458.750421574
 21
136531.2199956665
 31
30.0
 12
221462.5322142715
 22
136521.3576217652
 32
31.04207298374534
 13
221529.1787498204
 23
136462.212232009
 33
49.40652595887693
 70
     5
  0
3DFACE
  5
1D8
330
2
100
AcDbEntity
  8
0
370
     5
100
AcDbFace
 10
221529.1787498204
 20
136462.212232009
 30
49.40652595887693
 11
221529.1787498204
 21
136462.212232009
 31
49.40652595887693
 12
221462.5322142715
 22
136521.3576217652
 32
31.04207298374534
 13
221474.0483213962
 23
136498.0052666244
 33
34.21533632004038
 70
    11
  0
3DFACE
  5
1D9
330
2
100
AcDbEntity
  8
0
370
     5
100
AcDbFace
 10
221529.1787498204
 20
136462.212232009
 30
49.40652595887693
 11
221474.0483213962
 21
136498.0052666244
 31
34.21533632004038
 12
221488.514000624
 22
136476.3558477314
 32
38.20135425394925
 13
221549.6303052249
 23
136446.9023894016
 33
55.04195208269412
 70
     5
  0
3DFACE
  5
1DA
330
2
100
AcDbEntity
  8
0
370
     5
100
AcDbFace
 10
221567.6235837191
 20
136436.7552696052
 30
60.0
 11
221549.6303052249
 21
136446.9023894016
 31
55.04195208269412
 12
221546.9072141513
 22
136425.1463738693
 32
54.29160433309139
 13
221567.6235837191
 23
136414.7443941859
 33
60.0
 70
     2
  0
3DFACE
  5
1DB
330
2
100
AcDbEntity
  8
0
370
     5
100
AcDbFace
 10
221549.6303052249
 20
136446.9023894016
 30
55.04195208269412
 11
221488.514000624
 21
136476.3558477314
 31
38.20135425394925
 12
221525.2577952583
 22
136439.612053097
 32
48.32610692311535
 13
221546.9072141513
 23
136425.1463738693
 33
54.29160433309139
 70
    11
  0
3DFACE
  5
1DC
330
2
100
AcDbEntity
  8
0
370
     5
100
AcDbFace
 10
221525.2577952583
 20
136439.612053097
 30
48.32610692311535
 11
221525.2577952583
 21
136439.612053097
 31
48.32610692311535
 12
221488.514000624
 22
136476.3558477314
 32
38.20135425394925
 13
221505.6817401725
 23
136456.7797926456
 33
42.93192491348981
 70
     2
  0
3DFACE
  5
1DD
330
2
100
AcDbEntity
  8
0
370
     5
100
AcDbFace
 10
221549.6303052249
 20
136446.9023894016
 30
0.0
 11
221549.6303052249
 21
136446.9023894016
 31
0.0
 12
221567.6235837191
 22
136436.7552696052
 32
0.0
 13
221567.6235837191
 23
136414.7443941859
 33
0.0
 70
     9
  0
3DFACE
  5
1DE
330
2
100
AcDbEntity
  8
0
370
     5
100
AcDbFace
 10
221529.1787498204
 20
136462.212232009
 30
0.0
 11
221529.1787498204
 21
136462.212232009
 31
0.0
 12
221549.6303052249
 22
136446.9023894016
 32
0.0
 13
221567.6235837191
 23
136414.7443941859
 33
0.0
 70
    13
  0
3DFACE
  5
1DF
330
2
100
AcDbEntity
  8
0
370
     5
100
AcDbFace
 10
221529.1787498204
 20
136462.212232009
 30
0.0
 11
221567.6235837191
 21
136414.7443941859
 31
0.0
 12
221546.9072141513
 22
136425.1463738693
 32
0.0
 13
221511.1141795359
 23
136480.2768022935
 33
0.0
 70
     5
  0
3DFACE
  5
1E0
330
2
100
AcDbEntity
  8
0
370
     5
100
AcDbFace
 10
221511.1141795359
 20
136480.2768022935
 30
0.0
 11
221546.9072141513
 21
136425.1463738693
 31
0.0
 12
221525.2577952583
 22
136439.612053097
 32
0.0
 13
221495.8043369284
 23
136500.7283576981
 33
0.0
 70
     5
  0
3DFACE
  5
1E1
330
2
100
AcDbEntity
  8
0
370
     5
100
AcDbFace
 10
221495.8043369284
 20
136500.7283576981
 30
0.0
 11
221525.2577952583
 21
136439.612053097
 31
0.0
 12
221505.6817401725
 22
136456.7797926456
 32
0.0
 13
221483.5608862436
 23
136523.1505635319
 33
0.0
 70
     5
  0
3DFACE
  5
1E2
330
2
100
AcDbEntity
  8
0
370
     5
100
AcDbFace
 10
221477.6079884074
 20
136537.8827408306
 30
0.0
 11
221483.5608862436
 21
136523.1505635319
 31
0.0
 12
221462.5322142715
 22
136521.3576217652
 32
0.0
 13
221458.750421574
 23
136531.2199956665
 33
0.0
 70
     2
  0
3DFACE
  5
1E3
330
2
100
AcDbEntity
  8
0
370
     5
100
AcDbFace
 10
221483.5608862436
 20
136523.1505635319
 30
0.0
 11
221505.6817401725
 21
136456.7797926456
 31
0.0
 12
221474.0483213962
 22
136498.0052666244
 32
0.0
 13
221462.5322142715
 23
136521.3576217652
 33
0.0
 70
    11
  0
3DFACE
  5
1E4
330
2
100
AcDbEntity
  8
0
370
     5
100
AcDbFace
 10
221474.0483213962
 20
136498.0052666244
 30
0.0
 11
221474.0483213962
 21
136498.0052666244
 31
0.0
 12
221505.6817401725
 22
136456.7797926456
 32
0.0
 13
221488.514000624
 23
136476.3558477314
 33
0.0
 70
     2
  0
ARC
  5
1E5
330
2
100
AcDbEntity
  8
0
370
     5
100
AcDbCircle
 10
222173.7642609052
 20
135314.3775997076
 30
0.0
 40
223.9653873215967
100
AcDbArc
 50
327.8007077872415
 51
27.88157799455074
  0
ARC
  5
1E6
330
2
100
AcDbEntity
  8
0
370
     5
100
AcDbCircle
 10
223041.482906533
 20
135314.3775997076
 30
0.0
 40
223.9653901831533
100
AcDbArc
 50
152.1184223948133
 51
212.1992920426852
  0
ARC
  5
1E7
330
2
100
AcDbEntity
  8
0
370
     5
100
AcDbCircle
 10
-222607.6235820799
 20
135922.8430278039
 30
-0.0000000000010516
 40
767.7289931028264
210
0.0
220
0.0
230
-1.0
100
AcDbArc
 50
251.4420784804742
 51
288.557921526669
  0
ARC
  5
1E8
330
2
100
AcDbEntity
  8
0
370
     5
100
AcDbCircle
 10
-222607.6235837191
 20
135903.9459037302
 30
0.0
 40
779.8385944337549
210
0.0
220
0.0
230
-1.0
100
AcDbArc
 50
250.3002069646362
 51
289.6997930353638
  0
ARC
  5
1E9
330
2
100
AcDbEntity
  8
0
370
     5
100
AcDbCircle
 10
-222607.6235837191
 20
135903.9459037302
 30
0.0
 40
809.838594433755
210
0.0
220
0.0
230
-1.0
100
AcDbArc
 50
249.3233229044091
 51
290.6766770955909
  0
ARC
  5
1EA
330
2
100
AcDbEntity
  8
0
370
     5
100
AcDbCircle
 10
-222607.6235837191
 20
135903.9459037302
 30
0.0
 40
839.8385944337547
210
0.0
220
0.0
230
-1.0
100
AcDbArc
 50
248.0243340514475
 51
291.9756659485525
  0
LWPOLYLINE
  5
1EB
330
2
100
AcDbEntity
  8
0
370
     5
100
AcDbPolyline
 90
        7
 70
     0
 43
0.0
 10
221473.9880783757
 20
135702.1847169514
 42
0.0924781669570143
 10
221567.6235837191
 20
135634.1156150193
 10
221567.6235837191
 20
135547.464066338
 42
-0.0971389859807995
 10
221437.2885346684
 20
135626.2254145589
 10
221477.6235837191
 20
135670.644822683
 42
-0.0189466167103669
 10
221459.4607233649
 20
135688.4385918104
 10
221473.9880783757
 20
135702.1847169514
  0
CIRCLE
  5
1EC
330
2
100
AcDbEntity
  8
0
370
     5
100
AcDbCircle
 10
221622.8763509805
 20
135219.5960700107
 30
90.0
 40
128.0448260193482
  0
CIRCLE
  5
1ED
330
2
100
AcDbEntity
  8
0
370
     5
100
AcDbCircle
 10
221622.8763509805
 20
135219.5960700107
 30
90.0
 40
148.0448260193482
  0
LWPOLYLINE
  5
1EE
330
2
100
AcDbEntity
  8
0
370
     5
100
AcDbPolyline
 90
        7
 70
     0
 43
0.0
 38
90.0
 10
221567.6235837191
 20
135335.1062824608
 42
1.973703847627316
 10
221749.6484249716
 20
135237.6049213432
 10
221833.6262389621
 20
135237.6053642914
 42
-0.1918147432402222
 10
221788.2996016971
 20
135087.781814002
 10
221736.3635909139
 20
135124.5281107215
 42
-1.280881847375806
 10
221567.6235837191
 20
135356.943811969
 10
221567.6235837191
 20
135335.1062824608
  0
LWPOLYLINE
  5
1EF
330
2
100
AcDbEntity
  8
0
370
     5
100
AcDbPolyline
 90
        7
 70
     0
 43
0.0
 10
221498.9028383426
 20
135251.6280171033
 42
-0.2214630575585591
 10
221567.6235837191
 20
135335.1062824608
 10
221567.6235837191
 20
135423.7699735961
 42
0.2141849580200233
 10
221433.5864560278
 20
135313.9845525366
 10
221488.6923357702
 20
135282.1414181441
 42
0.0399799967127761
 10
221480.4482857493
 20
135259.9881081569
 10
221498.9028383426
 20
135251.6280171033
  0
LWPOLYLINE
  5
1F0
330
2
100
AcDbEntity
  8
0
370
     5
100
AcDbPolyline
 90
        2
 70
     0
 43
0.0
 10
222246.7699651172
 20
135134.3342939382
 10
221816.4487650939
 20
135134.3342939382
  0
LWPOLYLINE
  5
1F1
330
2
100
AcDbEntity
  8
0
370
     5
100
AcDbPolyline
 90
        2
 70
     0
 43
0.0
 10
222383.6078817783
 20
135237.6175666153
 10
221833.6262389621
 20
135237.6053642914
  0
LWPOLYLINE
  5
1F2
330
2
100
AcDbEntity
  8
0
370
     5
100
AcDbPolyline
 90
        2
 70
     0
 43
0.0
 38
60.0
 10
222339.0150411182
 20
135214.774814444
 10
221834.3394664362
 20
135214.7793526082
  0
LWPOLYLINE
  5
1F3
330
2
100
AcDbEntity
  8
0
370
     5
100
AcDbPolyline
 90
        2
 70
     0
 43
0.0
 10
221788.2996016971
 20
135087.781814002
 42
-0.8993454471486689
 10
221433.5864560278
 20
135313.9845525366
 42
-90143.75371031833
  0
LWPOLYLINE
  5
1F4
330
2
100
AcDbEntity
  8
0
370
     5
100
AcDbPolyline
 90
        2
 70
     0
 43
0.0
 38
60.0
 10
221736.3635909139
 20
135124.5281107215
 42
-0.8772711568598664
 10
221488.6923357702
 20
135282.1414181441
 42
-90143.75371031833
  0
3DFACE
  5
1F5
330
2
100
AcDbEntity
  8
0
370
     5
100
AcDbFace
 10
221578.4362059762
 20
135078.3787055575
 30
60.0
 11
221560.3797685396
 21
135085.389335104
 31
60.0
 12
221533.9149794261
 22
135027.855407764
 32
0.0
 13
221560.1810999244
 23
135017.7304238325
 33
0.0
  0
3DFACE
  5
1F6
330
2
100
AcDbEntity
  8
0
370
     5
100
AcDbFace
 10
221560.3797685396
 20
135085.389335104
 30
60.0
 11
221543.3931590724
 21
135094.6973401724
 31
60.0
 12
221509.2258273456
 22
135041.3783569686
 32
0.0
 13
221533.9149794261
 23
135027.855407764
 33
0.0
  0
3DFACE
  5
1F7
330
2
100
AcDbEntity
  8
0
370
     5
100
AcDbFace
 10
221543.3931590724
 20
135094.6973401724
 30
60.0
 11
221527.7671574735
 21
135106.1433846235
 31
60.0
 12
221486.5508624422
 22
135058.0597943249
 32
0.0
 13
221509.2258273456
 23
135041.3783569686
 33
0.0
  0
3DFACE
  5
1F8
330
2
100
AcDbEntity
  8
0
370
     5
100
AcDbFace
 10
221527.7671574735
 20
135106.1433846235
 30
60.0
 11
221513.7692525065
 21
135119.5315329673
 31
60.0
 12
221466.2916343514
 22
135077.6043092282
 32
0.0
 13
221486.5508624422
 23
135058.0597943249
 33
0.0
  0
3DFACE
  5
1F9
330
2
100
AcDbEntity
  8
0
370
     5
100
AcDbFace
 10
221513.7692525065
 20
135119.5315329673
 30
60.0
 11
221501.6390628779
 21
135134.6326044233
 31
60.0
 12
221448.8069125659
 22
135099.6657890002
 32
0.0
 13
221466.2916343514
 23
135077.6043092282
 33
0.0
  0
3DFACE
  5
1FA
330
2
100
AcDbEntity
  8
0
370
     5
100
AcDbFace
 10
221501.6390628779
 20
135134.6326044233
 30
60.0
 11
221491.5842354002
 21
135151.1880960782
 31
60.0
 12
221434.4063330077
 22
135123.8535481777
 32
0.0
 13
221448.8069125659
 23
135099.6657890002
 33
0.0
  0
3DFACE
  5
1FB
330
2
100
AcDbEntity
  8
0
370
     5
100
AcDbFace
 10
221491.5842354002
 20
135151.1880960782
 30
60.0
 11
221483.7768904557
 21
135168.9146079873
 31
60.0
 12
221423.344914703
 22
135149.7392471394
 32
0.0
 13
221434.4063330077
 23
135123.8535481777
 33
0.0
  0
ARC
  5
1FC
330
2
100
AcDbEntity
  8
0
370
     5
100
AcDbCircle
 10
-223037.7514703153
 20
135314.0377448795
 30
0.0
 40
189.6991239915944
210
0.0
220
0.0
230
-1.0
100
AcDbArc
 50
328.679448465643
 51
33.63568899203792
  0
ARC
  5
1FD
330
2
100
AcDbEntity
  8
0
370
     5
100
AcDbCircle
 10
223041.0188914732
 20
135314.3601077294
 30
0.0
 40
223.5635407280567
100
AcDbArc
 50
152.0588475931706
 51
212.2588668440767
  0
3DFACE
  5
1FE
330
2
100
AcDbEntity
  8
0
370
     5
100
AcDbFace
 10
222856.1913992948
 20
135188.6919543444
 30
58.2830459908478
 11
222851.9634507341
 21
135195.0341013831
 31
59.95324940854686
 12
222851.9634507341
 22
135195.0341013831
 32
0.0
 13
222856.1913992948
 23
135188.6919543444
 33
0.0
  0
3DFACE
  5
1FF
330
2
100
AcDbEntity
  8
0
370
     5
100
AcDbFace
 10
222893.8797491477
 20
135146.1506028767
 30
45.73767209828284
 11
222873.7489353784
 21
135166.2814160258
 31
52.00461619102586
 12
222873.7489353784
 22
135166.2814160258
 32
0.0
 13
222893.8797491477
 23
135146.1506028767
 33
0.0
  0
3DFACE
  5
200
330
2
100
AcDbEntity
  8
0
370
     5
100
AcDbFace
 10
222916.2902880071
 20
135128.5930674832
 30
39.57359986942003
 11
222893.8797491477
 21
135146.1506028767
 31
45.73767209828284
 12
222893.8797491477
 22
135146.1506028767
 32
0.0
 13
222916.2902880071
 23
135128.5930674832
 33
0.0
  0
3DFACE
  5
201
330
2
100
AcDbEntity
  8
0
370
     5
100
AcDbFace
 10
222940.6537558359
 20
135113.8648382478
 30
33.60228555781608
 11
222916.2902880071
 21
135128.5930674832
 31
39.57359986942003
 12
222916.2902880071
 22
135128.5930674832
 32
0.0
 13
222940.6537558359
 23
135113.8648382478
 33
0.0
  0
3DFACE
  5
202
330
2
100
AcDbEntity
  8
0
370
     5
100
AcDbFace
 10
222956.7479420282
 20
135106.1798237858
 30
29.99999999999997
 11
222940.6537558359
 21
135113.8648382478
 31
33.60228555781608
 12
222940.6537558359
 22
135113.8648382478
 32
0.0
 13
222956.7479420282
 23
135106.1798237858
 33
0.0
  0
3DFACE
  5
203
330
2
100
AcDbEntity
  8
0
370
     5
100
AcDbFace
 10
222968.4772057089
 20
135134.334297205
 30
33.0265903065976
 11
222956.7479420282
 21
135106.1798237858
 31
29.99999999999997
 12
222956.7479420282
 22
135106.1798237858
 32
0.0
 13
222968.4772057089
 23
135134.334297205
 33
0.0
  0
3DFACE
  5
204
330
2
100
AcDbEntity
  8
0
370
     5
100
AcDbFace
 10
222962.0118593515
 20
135137.1446752635
 30
34.42734456839943
 11
222968.4772057089
 21
135134.334297205
 31
33.0265903065976
 12
222968.4772057089
 22
135134.334297205
 32
0.0
 13
222962.0118593515
 23
135137.1446752635
 33
0.0
  0
3DFACE
  5
205
330
2
100
AcDbEntity
  8
0
370
     5
100
AcDbFace
 10
222937.9625100145
 20
135150.2766130403
 30
40.08618629816878
 11
222962.0118593515
 21
135137.1446752635
 31
34.42734456839943
 12
222962.0118593515
 22
135137.1446752635
 32
0.0
 13
222937.9625100145
 23
135150.2766130403
 33
0.0
  0
3DFACE
  5
206
330
2
100
AcDbEntity
  8
0
370
     5
100
AcDbFace
 10
222916.0268179783
 20
135166.6974658867
 30
45.99161725669637
 11
222937.9625100145
 21
135150.2766130403
 31
40.08618629816878
 12
222937.9625100145
 22
135150.2766130403
 32
0.0
 13
222916.0268179783
 23
135166.6974658867
 33
0.0
  0
3DFACE
  5
207
330
2
100
AcDbEntity
  8
0
370
     5
100
AcDbFace
 10
222896.6513306757
 20
135186.0729525926
 30
52.02341989952318
 11
222916.0268179783
 21
135166.6974658867
 31
45.99161725669637
 12
222916.0268179783
 22
135166.6974658867
 32
0.0
 13
222896.6513306757
 23
135186.0729525926
 33
0.0
  0
3DFACE
  5
208
330
2
100
AcDbEntity
  8
0
370
     5
100
AcDbFace
 10
222880.2304771535
 20
135208.0086441229
 30
58.05880411912369
 11
222896.6513306757
 21
135186.0729525926
 31
52.02341989952318
 12
222896.6513306757
 22
135186.0729525926
 32
0.0
 13
222880.2304771535
 23
135208.0086441229
 33
0.0
  0
3DFACE
  5
209
330
2
100
AcDbEntity
  8
0
370
     5
100
AcDbFace
 10
222875.6967412419
 20
135215.427292228
 30
59.95324900564074
 11
222880.2304771535
 21
135208.0086441229
 31
58.05880411912369
 12
222880.2304771535
 22
135208.0086441229
 32
0.0
 13
222875.6967412419
 23
135215.427292228
 33
0.0
  0
3DFACE
  5
20A
330
2
100
AcDbEntity
  8
0
370
     5
100
AcDbFace
 10
222968.4772057089
 20
135134.334297205
 30
33.0265903065976
 11
222962.0118593515
 21
135137.1446752635
 31
34.42734456839943
 12
222940.6537558359
 22
135113.8648382478
 32
33.60228555781608
 13
222956.7479420282
 23
135106.1798237858
 33
29.99999999999997
 70
     2
  0
3DFACE
  5
20B
330
2
100
AcDbEntity
  8
0
370
     5
100
AcDbFace
 10
222253.2353080856
 20
135137.1446752648
 30
0.0
 11
222341.4982320588
 21
135166.2814160268
 31
0.0
 12
222298.95687943
 22
135128.5930674844
 32
0.0
 13
222274.5934116011
 23
135113.864838249
 33
0.0
 70
    11
  0
3DFACE
  5
20C
330
2
100
AcDbEntity
  8
0
370
     5
100
AcDbFace
 10
222246.7699617282
 20
135134.3342972063
 30
0.0
 11
222253.2353080856
 21
135137.1446752648
 31
0.0
 12
222274.5934116011
 22
135113.864838249
 32
0.0
 13
222258.4992254087
 23
135106.1798237871
 33
0.0
 70
     2
  0
3DFACE
  5
20D
330
2
100
AcDbEntity
  8
0
370
     5
100
AcDbFace
 10
222277.2846574227
 20
135150.2766130415
 30
0.0
 11
222363.2837167032
 21
135195.034101384
 31
0.0
 12
222359.0557681426
 22
135188.6919543453
 32
0.0
 13
222253.2353080856
 23
135137.1446752648
 33
0.0
 70
     5
  0
3DFACE
  5
20E
330
2
100
AcDbEntity
  8
0
370
     5
100
AcDbFace
 10
222299.2203494589
 20
135166.6974658878
 30
45.99161725669637
 11
222258.4992254087
 21
135106.1798237871
 31
29.99999999999997
 12
222274.5934116011
 22
135113.864838249
 32
33.60228555781608
 13
222318.5958367616
 23
135186.0729525937
 33
52.02341989952318
 70
     5
  0
3DFACE
  5
20F
330
2
100
AcDbEntity
  8
0
370
     5
100
AcDbFace
 10
222277.2846574227
 20
135150.2766130415
 30
40.08618629816878
 11
222277.2846574227
 21
135150.2766130415
 31
40.08618629816878
 12
222253.2353080856
 22
135137.1446752648
 32
34.42734456839943
 13
222258.4992254087
 23
135106.1798237871
 33
29.99999999999997
 70
    13
  0
3DFACE
  5
210
330
2
100
AcDbEntity
  8
0
370
     5
100
AcDbFace
 10
222253.2353080856
 20
135137.1446752648
 30
34.42734456839943
 11
222253.2353080856
 21
135137.1446752648
 31
34.42734456839943
 12
222246.7699617282
 22
135134.3342972063
 32
33.0265903065976
 13
222258.4992254087
 23
135106.1798237871
 33
29.99999999999997
 70
     9
  0
3DFACE
  5
211
330
2
100
AcDbEntity
  8
0
370
     5
100
AcDbFace
 10
222335.0166902838
 20
135208.0086441239
 30
0.0
 11
222318.5958367616
 21
135186.0729525937
 31
0.0
 12
222318.5958367616
 22
135186.0729525937
 32
52.02341989952318
 13
222335.0166902838
 23
135208.0086441239
 33
58.05880411912369
  0
3DFACE
  5
212
330
2
100
AcDbEntity
  8
0
370
     5
100
AcDbFace
 10
222299.2203494589
 20
135166.6974658878
 30
0.0
 11
222277.2846574227
 21
135150.2766130415
 31
0.0
 12
222277.2846574227
 22
135150.2766130415
 32
40.08618629816878
 13
222299.2203494589
 23
135166.6974658878
 33
45.99161725669637
  0
3DFACE
  5
213
330
2
100
AcDbEntity
  8
0
370
     5
100
AcDbFace
 10
222277.2846574227
 20
135150.2766130415
 30
0.0
 11
222253.2353080856
 21
135137.1446752648
 31
0.0
 12
222253.2353080856
 22
135137.1446752648
 32
34.42734456839943
 13
222277.2846574227
 23
135150.2766130415
 33
40.08618629816878
  0
3DFACE
  5
214
330
2
100
AcDbEntity
  8
0
370
     5
100
AcDbFace
 10
222246.7699617282
 20
135134.3342972063
 30
0.0
 11
222258.4992254087
 21
135106.1798237871
 31
0.0
 12
222258.4992254087
 22
135106.1798237871
 32
29.99999999999997
 13
222246.7699617282
 23
135134.3342972063
 33
33.0265903065976
  0
3DFACE
  5
215
330
2
100
AcDbEntity
  8
0
370
     5
100
AcDbFace
 10
222258.4992254087
 20
135106.1798237871
 30
0.0
 11
222274.5934116011
 21
135113.864838249
 31
0.0
 12
222274.5934116011
 22
135113.864838249
 32
33.60228555781608
 13
222258.4992254087
 23
135106.1798237871
 33
29.99999999999997
  0
ARC
  5
216
330
2
100
AcDbEntity
  8
0
370
     5
100
AcDbCircle
 10
-223041.0188914714
 20
136523.8679644095
 30
0.0
 40
223.5635407280567
210
0.0
220
0.0
230
-1.0
100
AcDbArc
 50
332.0588475931706
 51
32.25886684407674
  0
ARC
  5
217
330
2
100
AcDbEntity
  8
0
370
     5
100
AcDbCircle
 10
223042.0259594976
 20
136523.2153370817
 30
116.1176082382473
 40
193.9784874262624
100
AcDbArc
 50
146.5211830131344
 51
210.0382263015688
  0
3DFACE
  5
218
330
2
100
AcDbEntity
  8
0
370
     5
100
AcDbFace
 10
222962.0118593492
 20
136701.0833968752
 30
0.0
 11
222873.7489353762
 21
136671.9466561125
 31
0.0
 12
222916.2902880048
 22
136709.6350046553
 32
0.0
 13
222940.6537558335
 23
136724.3632338908
 33
0.0
 70
    11
  0
3DFACE
  5
219
330
2
100
AcDbEntity
  8
0
370
     5
100
AcDbFace
 10
222968.4772057066
 20
136703.8937749337
 30
0.0
 11
222962.0118593492
 21
136701.0833968752
 31
0.0
 12
222940.6537558335
 22
136724.3632338908
 32
0.0
 13
222956.7479420259
 23
136732.0482483528
 33
0.0
 70
     2
  0
3DFACE
  5
21A
330
2
100
AcDbEntity
  8
0
370
     5
100
AcDbFace
 10
222937.9625100122
 20
136687.9514590983
 30
0.0
 11
222851.9634507319
 21
136643.1939707552
 31
0.0
 12
222856.1913992926
 22
136649.5361177939
 32
0.0
 13
222962.0118593492
 23
136701.0833968752
 33
0.0
 70
     5
  0
3DFACE
  5
21B
330
2
100
AcDbEntity
  8
0
370
     5
100
AcDbFace
 10
222937.9625100122
 20
136687.9514590983
 30
0.0
 11
222937.9625100122
 21
136687.9514590983
 31
0.0
 12
222916.0268179761
 22
136671.5306062518
 32
0.0
 13
222851.9634507319
 23
136643.1939707552
 33
0.0
 70
    13
  0
3DFACE
  5
21C
330
2
100
AcDbEntity
  8
0
370
     5
100
AcDbFace
 10
222916.0268179761
 20
136671.5306062518
 30
0.0
 11
222916.0268179761
 21
136671.5306062518
 31
0.0
 12
222896.6513306735
 22
136652.1551195459
 32
0.0
 13
222851.9634507319
 23
136643.1939707552
 33
0.0
 70
    13
  0
3DFACE
  5
21D
330
2
100
AcDbEntity
  8
0
370
     5
100
AcDbFace
 10
222896.6513306735
 20
136652.1551195459
 30
52.02341989952318
 11
222940.6537558335
 21
136724.3632338908
 31
33.60228555781608
 12
222916.2902880048
 22
136709.6350046553
 32
39.57359986942003
 13
222880.2304771515
 23
136630.2194280155
 33
58.05880411912369
 70
     5
  0
3DFACE
  5
21E
330
2
100
AcDbEntity
  8
0
370
     5
100
AcDbFace
 10
222916.0268179761
 20
136671.5306062518
 30
45.99161725669637
 11
222956.7479420259
 21
136732.0482483528
 31
29.99999999999997
 12
222940.6537558335
 22
136724.3632338908
 32
33.60228555781608
 13
222896.6513306735
 23
136652.1551195459
 33
52.02341989952318
 70
     5
  0
3DFACE
  5
21F
330
2
100
AcDbEntity
  8
0
370
     5
100
AcDbFace
 10
222916.0268179761
 20
136671.5306062518
 30
45.99161725669637
 11
222916.0268179761
 21
136671.5306062518
 31
45.99161725669637
 12
222937.9625100122
 22
136687.9514590983
 32
40.08618629816878
 13
222956.7479420259
 23
136732.0482483528
 33
29.99999999999997
 70
    13
  0
3DFACE
  5
220
330
2
100
AcDbEntity
  8
0
370
     5
100
AcDbFace
 10
222937.9625100122
 20
136687.9514590983
 30
40.08618629816878
 11
222937.9625100122
 21
136687.9514590983
 31
40.08618629816878
 12
222962.0118593492
 22
136701.0833968752
 32
34.42734456839943
 13
222956.7479420259
 23
136732.0482483528
 33
29.99999999999997
 70
    13
  0
3DFACE
  5
221
330
2
100
AcDbEntity
  8
0
370
     5
100
AcDbFace
 10
222962.0118593492
 20
136701.0833968752
 30
34.42734456839943
 11
222962.0118593492
 21
136701.0833968752
 31
34.42734456839943
 12
222968.4772057066
 22
136703.8937749337
 32
33.0265903065976
 13
222956.7479420259
 23
136732.0482483528
 33
29.99999999999997
 70
     9
  0
3DFACE
  5
222
330
2
100
AcDbEntity
  8
0
370
     5
100
AcDbFace
 10
222916.0268179761
 20
136671.5306062518
 30
45.99161725669637
 11
222896.6513306735
 21
136652.1551195459
 31
52.02341989952318
 12
222896.6513306735
 22
136652.1551195459
 32
0.0
 13
222916.0268179761
 23
136671.5306062518
 33
0.0
  0
3DFACE
  5
223
330
2
100
AcDbEntity
  8
0
370
     5
100
AcDbFace
 10
222937.9625100122
 20
136687.9514590983
 30
40.08618629816878
 11
222916.0268179761
 21
136671.5306062518
 31
45.99161725669637
 12
222916.0268179761
 22
136671.5306062518
 32
0.0
 13
222937.9625100122
 23
136687.9514590983
 33
0.0
  0
3DFACE
  5
224
330
2
100
AcDbEntity
  8
0
370
     5
100
AcDbFace
 10
222962.0118593492
 20
136701.0833968752
 30
34.42734456839943
 11
222937.9625100122
 21
136687.9514590983
 31
40.08618629816878
 12
222937.9625100122
 22
136687.9514590983
 32
0.0
 13
222962.0118593492
 23
136701.0833968752
 33
0.0
  0
3DFACE
  5
225
330
2
100
AcDbEntity
  8
0
370
     5
100
AcDbFace
 10
222968.4772057066
 20
136703.8937749337
 30
33.0265903065976
 11
222962.0118593492
 21
136701.0833968752
 31
34.42734456839943
 12
222962.0118593492
 22
136701.0833968752
 32
0.0
 13
222968.4772057066
 23
136703.8937749337
 33
0.0
  0
3DFACE
  5
226
330
2
100
AcDbEntity
  8
0
370
     5
100
AcDbFace
 10
222956.7479420259
 20
136732.0482483528
 30
29.99999999999997
 11
222968.4772057066
 21
136703.8937749337
 31
33.0265903065976
 12
222968.4772057066
 22
136703.8937749337
 32
0.0
 13
222956.7479420259
 23
136732.0482483528
 33
0.0
  0
3DFACE
  5
227
330
2
100
AcDbEntity
  8
0
370
     5
100
AcDbFace
 10
222940.6537558335
 20
136724.3632338908
 30
33.60228555781608
 11
222956.7479420259
 21
136732.0482483528
 31
29.99999999999997
 12
222956.7479420259
 22
136732.0482483528
 32
0.0
 13
222940.6537558335
 23
136724.3632338908
 33
0.0
  0
3DFACE
  5
228
330
2
100
AcDbEntity
  8
0
370
     5
100
AcDbFace
 10
222916.2902880048
 20
136709.6350046553
 30
39.57359986942003
 11
222940.6537558335
 21
136724.3632338908
 31
33.60228555781608
 12
222940.6537558335
 22
136724.3632338908
 32
0.0
 13
222916.2902880048
 23
136709.6350046553
 33
0.0
  0
ARC
  5
229
330
2
100
AcDbEntity
  8
0
370
     5
100
AcDbCircle
 10
-222173.6410152502
 20
136523.1043917981
 30
0.0
 40
193.5595606533046
210
0.0
220
0.0
230
-1.0
100
AcDbArc
 50
148.9979809863781
 51
210.0720016928964
  0
LINE
  5
22A
330
2
100
AcDbEntity
  8
0
370
     5
100
AcDbLine
 10
222339.5504283378
 20
136622.8007817488
 30
0.0
 11
222363.2837181751
 21
136643.1939737883
 31
0.0
  0
ARC
  5
22B
330
2
100
AcDbEntity
  8
0
370
     5
100
AcDbCircle
 10
222174.2282759667
 20
136523.8679644095
 30
0.0
 40
223.5635407280567
100
AcDbArc
 50
332.0588475931706
 51
32.25886684407674
  0
3DFACE
  5
22C
330
2
100
AcDbEntity
  8
0
370
     5
100
AcDbFace
 10
222363.2837167062
 20
136643.1939707552
 30
0.0
 11
222359.0557681456
 21
136649.5361177939
 31
0.0
 12
222359.0557681456
 22
136649.5361177939
 32
58.2830459908478
 13
222363.2837167062
 23
136643.1939707552
 33
59.95324940854686
  0
3DFACE
  5
22D
330
2
100
AcDbEntity
  8
0
370
     5
100
AcDbFace
 10
222359.0557681456
 20
136649.5361177939
 30
0.0
 11
222341.4982320619
 21
136671.9466561125
 31
0.0
 12
222341.4982320619
 22
136671.9466561125
 32
52.00461619102586
 13
222359.0557681456
 23
136649.5361177939
 33
58.2830459908478
  0
3DFACE
  5
22E
330
2
100
AcDbEntity
  8
0
370
     5
100
AcDbFace
 10
222321.3674182928
 20
136692.0774692618
 30
0.0
 11
222298.9568794334
 21
136709.6350046553
 31
0.0
 12
222298.9568794334
 22
136709.6350046553
 32
39.57359986942003
 13
222321.3674182928
 23
136692.0774692618
 33
45.73767209828284
  0
3DFACE
  5
22F
330
2
100
AcDbEntity
  8
0
370
     5
100
AcDbFace
 10
222274.5934116046
 20
136724.3632338908
 30
0.0
 11
222258.4992254123
 21
136732.0482483528
 31
0.0
 12
222258.4992254123
 22
136732.0482483528
 32
29.99999999999997
 13
222274.5934116046
 23
136724.3632338908
 33
33.60228555781608
  0
3DFACE
  5
230
330
2
100
AcDbEntity
  8
0
370
     5
100
AcDbFace
 10
222258.4992254123
 20
136732.0482483528
 30
0.0
 11
222246.7699617316
 21
136703.8937749336
 31
0.0
 12
222246.7699617316
 22
136703.8937749336
 32
33.0265903065976
 13
222258.4992254123
 23
136732.0482483528
 33
29.99999999999997
  0
3DFACE
  5
231
330
2
100
AcDbEntity
  8
0
370
     5
100
AcDbFace
 10
222246.7699617316
 20
136703.8937749336
 30
0.0
 11
222253.235308089
 21
136701.0833968752
 31
0.0
 12
222253.235308089
 22
136701.0833968752
 32
34.42734456839943
 13
222246.7699617316
 23
136703.8937749336
 33
33.0265903065976
  0
3DFACE
  5
232
330
2
100
AcDbEntity
  8
0
370
     5
100
AcDbFace
 10
222253.235308089
 20
136701.0833968752
 30
0.0
 11
222277.284657426
 21
136687.9514590982
 31
0.0
 12
222277.284657426
 22
136687.9514590982
 32
40.08618629816878
 13
222253.235308089
 23
136701.0833968752
 33
34.42734456839943
  0
3DFACE
  5
233
330
2
100
AcDbEntity
  8
0
370
     5
100
AcDbFace
 10
222299.220349462
 20
136671.5306062518
 30
0.0
 11
222318.5958367646
 21
136652.1551195459
 31
0.0
 12
222318.5958367646
 22
136652.1551195459
 32
52.02341989952318
 13
222299.220349462
 23
136671.5306062518
 33
45.99161725669637
  0
3DFACE
  5
234
330
2
100
AcDbEntity
  8
0
370
     5
100
AcDbFace
 10
222318.5958367646
 20
136652.1551195459
 30
0.0
 11
222335.0166902867
 21
136630.2194280154
 31
0.0
 12
222335.0166902867
 22
136630.2194280154
 32
58.05880411912369
 13
222318.5958367646
 23
136652.1551195459
 33
52.02341989952318
  0
3DFACE
  5
235
330
2
100
AcDbEntity
  8
0
370
     5
100
AcDbFace
 10
222339.5504261984
 20
136622.8007799104
 30
0.0
 11
222363.2837167062
 21
136643.1939707552
 31
0.0
 12
222363.2837167062
 22
136643.1939707552
 32
59.95324940854686
 13
222339.5504261984
 23
136622.8007799104
 33
59.95324900564074
  0
3DFACE
  5
236
330
2
100
AcDbEntity
  8
0
370
     5
100
AcDbFace
 10
222335.0166902867
 20
136630.2194280154
 30
58.05880411912369
 11
222335.0166902867
 21
136630.2194280154
 31
58.05880411912369
 12
222339.5504261984
 22
136622.8007799104
 32
59.95324900564074
 13
222363.2837167062
 23
136643.1939707552
 33
59.95324940854686
 70
     9
  0
3DFACE
  5
237
330
2
100
AcDbEntity
  8
0
370
     5
100
AcDbFace
 10
222318.5958367646
 20
136652.1551195459
 30
52.02341989952318
 11
222318.5958367646
 21
136652.1551195459
 31
52.02341989952318
 12
222335.0166902867
 22
136630.2194280154
 32
58.05880411912369
 13
222363.2837167062
 23
136643.1939707552
 33
59.95324940854686
 70
    13
  0
3DFACE
  5
238
330
2
100
AcDbEntity
  8
0
370
     5
100
AcDbFace
 10
222299.220349462
 20
136671.5306062518
 30
45.99161725669637
 11
222299.220349462
 21
136671.5306062518
 31
45.99161725669637
 12
222318.5958367646
 22
136652.1551195459
 32
52.02341989952318
 13
222363.2837167062
 23
136643.1939707552
 33
59.95324940854686
 70
    13
  0
3DFACE
  5
239
330
2
100
AcDbEntity
  8
0
370
     5
100
AcDbFace
 10
222277.284657426
 20
136687.9514590982
 30
40.08618629816878
 11
222363.2837167062
 21
136643.1939707552
 31
59.95324940854686
 12
222359.0557681456
 22
136649.5361177939
 32
58.2830459908478
 13
222253.235308089
 23
136701.0833968752
 33
34.42734456839943
 70
     5
  0
3DFACE
  5
23A
330
2
100
AcDbEntity
  8
0
370
     5
100
AcDbFace
 10
222253.235308089
 20
136701.0833968752
 30
34.42734456839943
 11
222253.235308089
 21
136701.0833968752
 31
34.42734456839943
 12
222359.0557681456
 22
136649.5361177939
 32
58.2830459908478
 13
222341.4982320619
 23
136671.9466561125
 33
52.00461619102586
 70
    11
  0
3DFACE
  5
23B
330
2
100
AcDbEntity
  8
0
370
     5
100
AcDbFace
 10
222246.7699617316
 20
136703.8937749336
 30
33.0265903065976
 11
222253.235308089
 21
136701.0833968752
 31
34.42734456839943
 12
222274.5934116046
 22
136724.3632338908
 32
33.60228555781608
 13
222258.4992254123
 23
136732.0482483528
 33
29.99999999999997
 70
     2
  0
3DFACE
  5
23C
330
2
100
AcDbEntity
  8
0
370
     5
100
AcDbFace
 10
222298.9568794334
 20
136709.6350046553
 30
39.57359986942003
 11
222298.9568794334
 21
136709.6350046553
 31
39.57359986942003
 12
222341.4982320619
 22
136671.9466561125
 32
52.00461619102586
 13
222321.3674182928
 23
136692.0774692618
 33
45.73767209828284
 70
     2
  0
3DFACE
  5
23D
330
2
100
AcDbEntity
  8
0
370
     5
100
AcDbFace
 10
222253.235308089
 20
136701.0833968752
 30
0.0
 11
222253.235308089
 21
136701.0833968752
 31
0.0
 12
222246.7699617316
 22
136703.8937749336
 32
0.0
 13
222258.4992254123
 23
136732.0482483528
 33
0.0
 70
     9
  0
3DFACE
  5
23E
330
2
100
AcDbEntity
  8
0
370
     5
100
AcDbFace
 10
222277.284657426
 20
136687.9514590982
 30
0.0
 11
222277.284657426
 21
136687.9514590982
 31
0.0
 12
222253.235308089
 22
136701.0833968752
 32
0.0
 13
222258.4992254123
 23
136732.0482483528
 33
0.0
 70
    13
  0
3DFACE
  5
23F
330
2
100
AcDbEntity
  8
0
370
     5
100
AcDbFace
 10
222299.220349462
 20
136671.5306062518
 30
0.0
 11
222258.4992254123
 21
136732.0482483528
 31
0.0
 12
222274.5934116046
 22
136724.3632338908
 32
0.0
 13
222318.5958367646
 23
136652.1551195459
 33
0.0
 70
     5
  0
3DFACE
  5
240
330
2
100
AcDbEntity
  8
0
370
     5
100
AcDbFace
 10
222318.5958367646
 20
136652.1551195459
 30
0.0
 11
222274.5934116046
 21
136724.3632338908
 31
0.0
 12
222298.9568794334
 22
136709.6350046553
 32
0.0
 13
222335.0166902867
 23
136630.2194280154
 33
0.0
 70
     5
  0
3DFACE
  5
241
330
2
100
AcDbEntity
  8
0
370
     5
100
AcDbFace
 10
222339.5504261984
 20
136622.8007799104
 30
0.0
 11
222335.0166902867
 21
136630.2194280154
 31
0.0
 12
222359.0557681456
 22
136649.5361177939
 32
0.0
 13
222363.2837167062
 23
136643.1939707552
 33
0.0
 70
     2
  0
3DFACE
  5
242
330
2
100
AcDbEntity
  8
0
370
     5
100
AcDbFace
 10
222335.0166902867
 20
136630.2194280154
 30
0.0
 11
222298.9568794334
 21
136709.6350046553
 31
0.0
 12
222341.4982320619
 22
136671.9466561125
 32
0.0
 13
222359.0557681456
 23
136649.5361177939
 33
0.0
 70
    11
  0
3DFACE
  5
243
330
2
100
AcDbEntity
  8
0
370
     5
100
AcDbFace
 10
222341.4982320619
 20
136671.9466561125
 30
0.0
 11
222341.4982320619
 21
136671.9466561125
 31
0.0
 12
222298.9568794334
 22
136709.6350046553
 32
0.0
 13
222321.3674182928
 23
136692.0774692618
 33
0.0
 70
     2
  0
CIRCLE
  5
244
330
2
100
AcDbEntity
  8
0
370
     5
100
AcDbCircle
 10
-222415.1085903089
 20
135225.6140360681
 30
0.0
 40
22.5
210
0.0
220
0.0
230
-1.0
  0
HATCH
  5
245
330
2
100
AcDbEntity
  8
0
370
     5
100
AcDbHatch
 10
0.0
 20
0.0
 30
0.0
210
0.0
220
0.0
230
1.0
  2
SOLID
 70
     1
 71
     1
 91
        1
 92
        7
 72
     1
 73
     1
 93
        2
 10
222819.4966213148
 20
135225.6140360683
 42
1.0
 10
222784.4966213148
 20
135225.6140360683
 42
1.0
 97
        1
330
253
 75
     0
 76
     1
 47
0.7126391744114322
 98
        1
 10
222800.3616144008
 20
135221.9757817298
1001
ACAD
1010
0.0
1020
0.0
1030
0.0
  0
HATCH
  5
246
330
2
100
AcDbEntity
  8
0
370
     5
100
AcDbHatch
 10
0.0
 20
0.0
 30
0.0
210
0.0
220
0.0
230
1.0
  2
SOLID
 70
     1
 71
     1
 91
        1
 92
        7
 72
     1
 73
     1
 93
        2
 10
222432.6085903086
 20
136612.6140360674
 42
1.0
 10
222397.6085903086
 20
136612.6140360674
 42
1.0
 97
        1
330
255
 75
     0
 76
     1
 47
0.7126391744114322
 98
        1
 10
222409.2172116167
 20
136612.3091324664
1001
ACAD
1010
0.0
1020
0.0
1030
0.0
  0
HATCH
  5
247
330
2
100
AcDbEntity
  8
0
370
     5
100
AcDbHatch
 10
0.0
 20
0.0
 30
0.0
210
0.0
220
0.0
230
1.0
  2
SOLID
 70
     1
 71
     1
 91
        1
 92
        7
 72
     1
 73
     1
 93
        2
 10
222487.6085903086
 20
136612.6140360674
 42
1.0
 10
222452.6085903086
 20
136612.6140360674
 42
1.0
 97
        1
330
257
 75
     0
 76
     1
 47
0.7126391744114322
 98
        1
 10
222466.9797727013
 20
136613.0217705475
1001
ACAD
1010
0.0
1020
0.0
1030
0.0
  0
HATCH
  5
248
330
2
100
AcDbEntity
  8
0
370
     5
100
AcDbHatch
 10
0.0
 20
0.0
 30
0.0
210
0.0
220
0.0
230
1.0
  2
SOLID
 70
     1
 71
     1
 91
        1
 92
        7
 72
     1
 73
     1
 93
        2
 10
222764.4966213144
 20
136612.6140360674
 42
1.0
 10
222729.4966213145
 20
136612.6140360674
 42
1.0
 97
        1
330
259
 75
     0
 76
     1
 47
0.7126391744114322
 98
        1
 10
222743.9958566728
 20
136612.2548893709
1001
ACAD
1010
0.0
1020
0.0
1030
0.0
  0
HATCH
  5
249
330
2
100
AcDbEntity
  8
0
370
     5
100
AcDbHatch
 10
0.0
 20
0.0
 30
0.0
210
0.0
220
0.0
230
1.0
  2
SOLID
 70
     1
 71
     1
 91
        1
 92
        7
 72
     1
 73
     1
 93
        2
 10
222819.4966213145
 20
136612.6140360674
 42
1.0
 10
222784.4966213144
 20
136612.6140360674
 42
1.0
 97
        1
330
25B
 75
     0
 76
     1
 47
0.7126391744114322
 98
        1
 10
222799.6190518243
 20
136614.3928036143
1001
ACAD
1010
0.0
1020
0.0
1030
0.0
  0
HATCH
  5
24A
330
2
100
AcDbEntity
  8
0
370
     5
100
AcDbHatch
 10
0.0
 20
0.0
 30
0.0
210
0.0
220
0.0
230
1.0
  2
SOLID
 70
     1
 71
     1
 91
        1
 92
        7
 72
     1
 73
     1
 93
        2
 10
222432.608590309
 20
135225.6140360681
 42
1.0
 10
222397.6085903089
 20
135225.6140360681
 42
1.0
 97
        1
330
24D
 75
     0
 76
     1
 47
0.7126391744114322
 98
        1
 10
222414.971779069
 20
135221.9757817298
1001
ACAD
1010
0.0
1020
0.0
1030
0.0
  0
HATCH
  5
24B
330
2
100
AcDbEntity
  8
0
370
     5
100
AcDbHatch
 10
0.0
 20
0.0
 30
0.0
210
0.0
220
0.0
230
1.0
  2
SOLID
 70
     1
 71
     1
 91
        1
 92
        7
 72
     1
 73
     1
 93
        2
 10
222487.608590309
 20
135225.6140360681
 42
1.0
 10
222452.6085903089
 20
135225.6140360681
 42
1.0
 97
        1
330
24F
 75
     0
 76
     1
 47
0.7126391744114322
 98
        1
 10
222466.70197211
 20
135223.2681632667
1001
ACAD
1010
0.0
1020
0.0
1030
0.0
  0
HATCH
  5
24C
330
2
100
AcDbEntity
  8
0
370
     5
100
AcDbHatch
 10
0.0
 20
0.0
 30
0.0
210
0.0
220
0.0
230
1.0
  2
SOLID
 70
     1
 71
     1
 91
        1
 92
        7
 72
     1
 73
     1
 93
        2
 10
222764.4966213148
 20
135225.6140360682
 42
1.0
 10
222729.4966213148
 20
135225.6140360682
 42
1.0
 97
        1
330
251
 75
     0
 76
     1
 47
0.7126391744114322
 98
        1
 10
222751.2179274662
 20
135227.1453270516
1001
ACAD
1010
0.0
1020
0.0
1030
0.0
  0
CIRCLE
  5
24D
102
{ACAD_REACTORS
330
24A
102
}
330
2
100
AcDbEntity
  8
0
370
     5
100
AcDbCircle
 10
-222415.1085903089
 20
135225.6140360681
 30
0.0
 40
17.5
210
0.0
220
0.0
230
-1.0
  0
CIRCLE
  5
24E
330
2
100
AcDbEntity
  8
0
370
     5
100
AcDbCircle
 10
-222470.108590309
 20
135225.6140360681
 30
0.0
 40
22.5
210
0.0
220
0.0
230
-1.0
  0
CIRCLE
  5
24F
102
{ACAD_REACTORS
330
24B
102
}
330
2
100
AcDbEntity
  8
0
370
     5
100
AcDbCircle
 10
-222470.108590309
 20
135225.6140360681
 30
0.0
 40
17.5
210
0.0
220
0.0
230
-1.0
  0
CIRCLE
  5
250
330
2
100
AcDbEntity
  8
0
370
     5
100
AcDbCircle
 10
-222746.9966213148
 20
135225.6140360682
 30
0.0
 40
22.5
210
0.0
220
0.0
230
-1.0
  0
CIRCLE
  5
251
102
{ACAD_REACTORS
330
24C
102
}
330
2
100
AcDbEntity
  8
0
370
     5
100
AcDbCircle
 10
-222746.9966213148
 20
135225.6140360682
 30
0.0
 40
17.5
210
0.0
220
0.0
230
-1.0
  0
CIRCLE
  5
252
330
2
100
AcDbEntity
  8
0
370
     5
100
AcDbCircle
 10
-222801.9966213148
 20
135225.6140360683
 30
0.0
 40
22.5
210
0.0
220
0.0
230
-1.0
  0
CIRCLE
  5
253
102
{ACAD_REACTORS
330
245
102
}
330
2
100
AcDbEntity
  8
0
370
     5
100
AcDbCircle
 10
-222801.9966213148
 20
135225.6140360683
 30
0.0
 40
17.5
210
0.0
220
0.0
230
-1.0
  0
CIRCLE
  5
254
330
2
100
AcDbEntity
  8
0
370
     5
100
AcDbCircle
 10
222415.1085903086
 20
136612.6140360674
 30
0.0
 40
22.5
  0
CIRCLE
  5
255
102
{ACAD_REACTORS
330
246
102
}
330
2
100
AcDbEntity
  8
0
370
     5
100
AcDbCircle
 10
222415.1085903086
 20
136612.6140360674
 30
0.0
 40
17.5
  0
CIRCLE
  5
256
330
2
100
AcDbEntity
  8
0
370
     5
100
AcDbCircle
 10
222470.1085903086
 20
136612.6140360674
 30
0.0
 40
22.5
  0
CIRCLE
  5
257
102
{ACAD_REACTORS
330
247
102
}
330
2
100
AcDbEntity
  8
0
370
     5
100
AcDbCircle
 10
222470.1085903086
 20
136612.6140360674
 30
0.0
 40
17.5
  0
CIRCLE
  5
258
330
2
100
AcDbEntity
  8
0
370
     5
100
AcDbCircle
 10
222746.9966213144
 20
136612.6140360674
 30
0.0
 40
22.5
  0
CIRCLE
  5
259
102
{ACAD_REACTORS
330
248
102
}
330
2
100
AcDbEntity
  8
0
370
     5
100
AcDbCircle
 10
222746.9966213144
 20
136612.6140360674
 30
0.0
 40
17.5
  0
CIRCLE
  5
25A
330
2
100
AcDbEntity
  8
0
370
     5
100
AcDbCircle
 10
222801.9966213144
 20
136612.6140360674
 30
0.0
 40
22.5
  0
CIRCLE
  5
25B
102
{ACAD_REACTORS
330
249
102
}
330
2
100
AcDbEntity
  8
0
370
     5
100
AcDbCircle
 10
222801.9966213144
 20
136612.6140360674
 30
0.0
 40
17.5
  0
LINE
  5
25C
330
2
100
AcDbEntity
  8
0
370
     5
100
AcDbLine
 10
222873.7489353784
 20
135166.2814160258
 30
0.0
 11
222856.1913992948
 21
135188.6919543444
 31
0.0
  0
LINE
  5
25D
330
2
100
AcDbEntity
  8
0
370
     5
100
AcDbLine
 10
222299.220349462
 20
136671.5306062518
 30
0.0
 11
222277.284657426
 21
136687.9514590982
 31
0.0
  0
LINE
  5
25E
330
2
100
AcDbEntity
  8
0
370
     5
100
AcDbLine
 10
222359.0557681426
 20
135188.6919543453
 30
0.0
 11
222344.7463432562
 21
135169.7498877949
 31
0.0
  0
LINE
  5
25F
330
2
100
AcDbEntity
  8
0
370
     5
100
AcDbLine
 10
222344.7463432562
 20
135169.7498877949
 30
0.0
 11
222321.6744097027
 21
135146.2707629779
 31
0.0
  0
LINE
  5
260
330
2
100
AcDbEntity
  8
0
370
     5
100
AcDbLine
 10
222321.6744097027
 20
135146.2707629779
 30
0.0
 11
222298.95687943
 21
135128.5930674844
 31
0.0
  0
LINE
  5
261
330
2
100
AcDbEntity
  8
0
370
     5
100
AcDbLine
 10
222339.0150411182
 20
135214.774814444
 30
60.0
 11
222335.0166902838
 21
135208.0086441239
 31
0.0
  0
3DFACE
  5
262
330
2
100
AcDbEntity
  8
0
370
     5
100
AcDbFace
 10
223677.623583719
 20
135539.1140360674
 30
0.0
 11
223677.623583719
 21
135479.1140360674
 31
0.0
 12
223677.623583719
 22
135479.1140360674
 32
0.0
 13
223677.623583719
 23
135539.1140360674
 33
0.0
  0
3DFACE
  5
263
330
2
100
AcDbEntity
  8
0
370
     5
100
AcDbFace
 10
223407.623583719
 20
135479.1140360674
 30
0.0
 11
223407.623583719
 21
135539.1140360673
 31
0.0
 12
223407.623583719
 22
135539.1140360673
 32
0.0
 13
223407.623583719
 23
135479.1140360674
 33
0.0
  0
LINE
  5
264
330
2
100
AcDbEntity
  8
0
370
     5
100
AcDbLine
 10
222517.623583719
 20
135479.1140360674
 30
0.0
 11
222517.623583719
 21
135419.1140360675
 31
0.0
  0
LINE
  5
265
330
2
100
AcDbEntity
  8
0
370
     5
100
AcDbLine
 10
222697.623583719
 20
135419.1140360676
 30
0.0
 11
222697.623583719
 21
135479.1140360675
 31
0.0
  0
LINE
  5
266
330
2
100
AcDbEntity
  8
0Wymiary-PL
370
     5
100
AcDbLine
 10
223717.623583719
 20
136958.9029223682
 30
0.0
 11
223367.6235837189
 21
136958.9029223682
 31
0.0
  0
LINE
  5
267
330
2
100
AcDbEntity
  8
0Wymiary-PL
370
     5
100
AcDbLine
 10
223783.623583719
 20
136958.9029223682
 30
0.0
 11
223711.623583719
 21
136958.9029223682
 31
0.0
  0
LWPOLYLINE
  5
268
330
2
100
AcDbEntity
  8
0Wymiary-PL
370
     5
100
AcDbPolyline
 90
        2
 70
     0
 43
9.000000000000001
 10
223726.4103802834
 20
136980.1161258038
 10
223768.8367871546
 20
136937.6897189327
  0
LINE
  5
269
330
2
100
AcDbEntity
  8
0Wymiary-PL
370
     5
100
AcDbLine
 10
223747.623583719
 20
136991.9029223682
 30
0.0
 11
223747.623583719
 21
136925.9029223682
 31
0.0
  0
LINE
  5
26A
330
2
100
AcDbEntity
  8
0Wymiary-PL
370
     5
100
AcDbLine
 10
223301.6235837189
 20
136958.9029223682
 30
0.0
 11
223373.6235837189
 21
136958.9029223682
 31
0.0
  0
LWPOLYLINE
  5
26B
330
2
100
AcDbEntity
  8
0Wymiary-PL
370
     5
100
AcDbPolyline
 90
        2
 70
     0
 43
9.000000000000001
 10
223358.8367871545
 20
136937.6897189327
 10
223316.4103802833
 20
136980.1161258038
  0
LINE
  5
26C
330
2
100
AcDbEntity
  8
0Wymiary-PL
370
     5
100
AcDbLine
 10
223337.6235837189
 20
136925.9029223682
 30
0.0
 11
223337.6235837189
 21
136991.9029223682
 31
0.0
  0
TEXT
  5
26D
330
2
100
AcDbEntity
  8
0Wymiary-PL
370
     5
100
AcDbText
 10
223439.7664408618
 20
136998.9029223682
 30
0.0
 40
80.0
  1
410
 50
0.0000000000009968
 41
0.9
  7
ROMANS
100
AcDbText
  0
LINE
  5
26E
330
2
100
AcDbEntity
  8
0Wymiary-PL
370
     5
100
AcDbLine
 10
223307.6235837189
 20
136958.9029223682
 30
0.0
 11
221907.623583719
 21
136958.9029223682
 31
0.0
  0
LINE
  5
26F
330
2
100
AcDbEntity
  8
0Wymiary-PL
370
     5
100
AcDbLine
 10
223373.6235837189
 20
136958.9029223682
 30
0.0
 11
223301.6235837189
 21
136958.9029223682
 31
0.0
  0
LWPOLYLINE
  5
270
330
2
100
AcDbEntity
  8
0Wymiary-PL
370
     5
100
AcDbPolyline
 90
        2
 70
     0
 43
9.000000000000001
 10
223316.4103802833
 20
136980.1161258038
 10
223358.8367871545
 20
136937.6897189327
  0
LINE
  5
271
330
2
100
AcDbEntity
  8
0Wymiary-PL
370
     5
100
AcDbLine
 10
223337.6235837189
 20
136991.9029223682
 30
0.0
 11
223337.6235837189
 21
136925.9029223682
 31
0.0
  0
LINE
  5
272
330
2
100
AcDbEntity
  8
0Wymiary-PL
370
     5
100
AcDbLine
 10
221841.623583719
 20
136958.9029223682
 30
0.0
 11
221913.623583719
 21
136958.9029223682
 31
0.0
  0
LWPOLYLINE
  5
273
330
2
100
AcDbEntity
  8
0Wymiary-PL
370
     5
100
AcDbPolyline
 90
        2
 70
     0
 43
9.000000000000001
 10
221898.8367871546
 20
136937.6897189326
 10
221856.4103802834
 20
136980.1161258038
  0
LINE
  5
274
330
2
100
AcDbEntity
  8
0Wymiary-PL
370
     5
100
AcDbLine
 10
221877.623583719
 20
136925.9029223682
 30
0.0
 11
221877.623583719
 21
136991.9029223682
 31
0.0
  0
TEXT
  5
275
330
2
100
AcDbEntity
  8
0Wymiary-PL
370
     5
100
AcDbText
 10
222465.3378694332
 20
136998.9029223682
 30
0.0
 40
80.0
  1
1460
 50
0.0000000000009968
 41
0.9
  7
ROMANS
100
AcDbText
  0
LINE
  5
276
330
2
100
AcDbEntity
  8
0Wymiary-PL
370
     5
100
AcDbLine
 10
221907.623583719
 20
136958.9029223682
 30
0.0
 11
221937.623583719
 21
136958.9029223682
 31
0.0
  0
LINE
  5
277
330
2
100
AcDbEntity
  8
0Wymiary-PL
370
     5
100
AcDbLine
 10
221757.6235837189
 20
136958.9029223682
 30
0.0
 11
221727.6235837189
 21
136958.9029223682
 31
0.0
  0
LINE
  5
278
330
2
100
AcDbEntity
  8
0Wymiary-PL
370
     5
100
AcDbLine
 10
221877.623583719
 20
136958.9029223682
 30
0.0
 11
221787.623583719
 21
136958.9029223682
 31
0.0
  0
LINE
  5
279
330
2
100
AcDbEntity
  8
0Wymiary-PL
370
     5
100
AcDbLine
 10
221841.623583719
 20
136958.9029223682
 30
0.0
 11
221913.623583719
 21
136958.9029223682
 31
0.0
  0
LWPOLYLINE
  5
27A
330
2
100
AcDbEntity
  8
0Wymiary-PL
370
     5
100
AcDbPolyline
 90
        2
 70
     0
 43
9.000000000000001
 10
221898.8367871546
 20
136937.6897189326
 10
221856.4103802834
 20
136980.1161258038
  0
LINE
  5
27B
330
2
100
AcDbEntity
  8
0Wymiary-PL
370
     5
100
AcDbLine
 10
221877.623583719
 20
136925.9029223682
 30
0.0
 11
221877.623583719
 21
136991.9029223682
 31
0.0
  0
LINE
  5
27C
330
2
100
AcDbEntity
  8
0Wymiary-PL
370
     5
100
AcDbLine
 10
221823.6235837189
 20
136958.9029223682
 30
0.0
 11
221751.6235837189
 21
136958.9029223682
 31
0.0
  0
LWPOLYLINE
  5
27D
330
2
100
AcDbEntity
  8
0Wymiary-PL
370
     5
100
AcDbPolyline
 90
        2
 70
     0
 43
9.000000000000001
 10
221766.4103802833
 20
136980.1161258038
 10
221808.8367871545
 20
136937.6897189326
  0
LINE
  5
27E
330
2
100
AcDbEntity
  8
0Wymiary-PL
370
     5
100
AcDbLine
 10
221787.623583719
 20
136991.9029223682
 30
0.0
 11
221787.623583719
 21
136925.9029223682
 31
0.0
  0
TEXT
  5
27F
330
2
100
AcDbEntity
  8
0Wymiary-PL
370
     5
100
AcDbText
 10
221764.0521551476
 20
136998.9029223682
 30
0.0
 40
80.0
  1
90
 50
0.0000000000009968
 41
0.9
  7
ROMANS
100
AcDbText
  0
LINE
  5
280
330
2
100
AcDbEntity
  8
0Wymiary-PL
370
     5
100
AcDbLine
 10
223717.623583719
 20
137176.6857549527
 30
0.0
 11
221817.6235837189
 21
137176.6857549526
 31
0.0
  0
LINE
  5
281
330
2
100
AcDbEntity
  8
0Wymiary-PL
370
     5
100
AcDbLine
 10
223783.623583719
 20
137176.6857549527
 30
0.0
 11
223711.623583719
 21
137176.6857549527
 31
0.0
  0
LWPOLYLINE
  5
282
330
2
100
AcDbEntity
  8
0Wymiary-PL
370
     5
100
AcDbPolyline
 90
        2
 70
     0
 43
9.000000000000001
 10
223726.4103802834
 20
137197.8989583883
 10
223768.8367871546
 20
137155.4725515171
  0
LINE
  5
283
330
2
100
AcDbEntity
  8
0Wymiary-PL
370
     5
100
AcDbLine
 10
223747.623583719
 20
137209.6857549527
 30
0.0
 11
223747.623583719
 21
137143.6857549527
 31
0.0
  0
LINE
  5
284
330
2
100
AcDbEntity
  8
0Wymiary-PL
370
     5
100
AcDbLine
 10
221751.6235837189
 20
137176.6857549526
 30
0.0
 11
221823.6235837189
 21
137176.6857549526
 31
0.0
  0
LWPOLYLINE
  5
285
330
2
100
AcDbEntity
  8
0Wymiary-PL
370
     5
100
AcDbPolyline
 90
        2
 70
     0
 43
9.000000000000001
 10
221808.8367871545
 20
137155.4725515171
 10
221766.4103802833
 20
137197.8989583882
  0
LINE
  5
286
330
2
100
AcDbEntity
  8
0Wymiary-PL
370
     5
100
AcDbLine
 10
221787.623583719
 20
137143.6857549526
 30
0.0
 11
221787.623583719
 21
137209.6857549526
 31
0.0
  0
TEXT
  5
287
330
2
100
AcDbEntity
  8
0Wymiary-PL
370
     5
100
AcDbText
 10
222625.3378694333
 20
137216.6857549527
 30
0.0
 40
80.0
  1
1960
 50
0.0000000000009968
 41
0.9
  7
ROMANS
100
AcDbText
  0
LINE
  5
288
330
2
100
AcDbEntity
  8
0Wymiary-PL
370
     5
100
AcDbLine
 10
223979.203600199
 20
136449.1140360676
 30
0.0
 11
223979.203600199
 21
136479.1140360676
 31
0.0
  0
LINE
  5
289
330
2
100
AcDbEntity
  8
0Wymiary-PL
370
     5
100
AcDbLine
 10
223979.203600199
 20
136329.1140360674
 30
0.0
 11
223979.203600199
 21
136299.1140360674
 31
0.0
  0
LINE
  5
28A
330
2
100
AcDbEntity
  8
0Wymiary-PL
370
     5
100
AcDbLine
 10
223979.203600199
 20
136419.1140360676
 30
0.0
 11
223979.203600199
 21
136359.1140360674
 31
0.0
  0
INSERT
  5
28B
330
2
100
AcDbEntity
  8
0Wymiary-PL
370
     5
100
AcDbBlockReference
  2
B-DIM
 10
223979.203600199
 20
136419.1140360676
 30
0.0
 41
30.0
 42
30.0
 43
30.0
 50
270.0
1001
AEC_XDATA_BOUND_SPACE
1070
   100
1070
     1
  0
INSERT
  5
28C
330
2
100
AcDbEntity
  8
0Wymiary-PL
370
     5
100
AcDbBlockReference
  2
B-DIM
 10
223979.203600199
 20
136359.1140360674
 30
0.0
 41
30.0
 42
30.0
 43
30.0
 50
90.0
1001
AEC_XDATA_BOUND_SPACE
1070
   100
1070
     1
  0
MTEXT
  5
28D
330
2
100
AcDbEntity
  8
0Wymiary-PL
370
     5
100
AcDbMText
 10
223899.203600199
 20
136389.1140360676
 30
0.0
 40
80.0
 41
0.0
 71
     5
 72
     1
  1
\A1;60
  7
ROMANS
 11
0.0000000000000001
 21
1.0
 31
0.0
 73
     1
 44
1.0
1001
ACAD
1000
MTEXTBEGIN
1070
    73
1070
     1
1070
    44
1040
1.0
1070
    74
1070
     0
1000
MTEXTEND
  0
LINE
  5
28E
330
2
100
AcDbEntity
  8
0Wymiary-PL
370
     5
100
AcDbLine
 10
223979.203600199
 20
136329.1140360674
 30
0.0
 11
223979.203600199
 21
135509.1140360674
 31
0.0
  0
INSERT
  5
28F
330
2
100
AcDbEntity
  8
0Wymiary-PL
370
     5
100
AcDbBlockReference
  2
B-DIM
 10
223979.203600199
 20
136359.1140360674
 30
0.0
 41
30.0
 42
30.0
 43
30.0
 50
90.0
1001
AEC_XDATA_BOUND_SPACE
1070
   100
1070
     1
  0
INSERT
  5
290
330
2
100
AcDbEntity
  8
0Wymiary-PL
370
     5
100
AcDbBlockReference
  2
B-DIM
 10
223979.203600199
 20
135479.1140360674
 30
0.0
 41
30.0
 42
30.0
 43
30.0
 50
270.0
1001
AEC_XDATA_BOUND_SPACE
1070
   100
1070
     1
  0
MTEXT
  5
291
330
2
100
AcDbEntity
  8
0Wymiary-PL
370
     5
100
AcDbMText
 10
223899.203600199
 20
135919.1140360675
 30
0.0
 40
80.0
 41
0.0
 71
     5
 72
     1
  1
\A1;880
  7
ROMANS
 11
0.0000000000000001
 21
1.0
 31
0.0
 73
     1
 44
1.0
1001
ACAD
1000
MTEXTBEGIN
1070
    73
1070
     1
1070
    44
1040
1.0
1070
    74
1070
     0
1000
MTEXTEND
  0
LINE
  5
292
330
2
100
AcDbEntity
  8
0Wymiary-PL
370
     5
100
AcDbLine
 10
223979.203600199
 20
135509.1140360674
 30
0.0
 11
223979.203600199
 21
135539.1140360674
 31
0.0
  0
LINE
  5
293
330
2
100
AcDbEntity
  8
0Wymiary-PL
370
     5
100
AcDbLine
 10
223979.203600199
 20
135389.1140360676
 30
0.0
 11
223979.203600199
 21
135359.1140360676
 31
0.0
  0
LINE
  5
294
330
2
100
AcDbEntity
  8
0Wymiary-PL
370
     5
100
AcDbLine
 10
223979.203600199
 20
135479.1140360674
 30
0.0
 11
223979.203600199
 21
135419.1140360676
 31
0.0
  0
INSERT
  5
295
330
2
100
AcDbEntity
  8
0Wymiary-PL
370
     5
100
AcDbBlockReference
  2
B-DIM
 10
223979.203600199
 20
135479.1140360674
 30
0.0
 41
30.0
 42
30.0
 43
30.0
 50
270.0
1001
AEC_XDATA_BOUND_SPACE
1070
   100
1070
     1
  0
INSERT
  5
296
330
2
100
AcDbEntity
  8
0Wymiary-PL
370
     5
100
AcDbBlockReference
  2
B-DIM
 10
223979.203600199
 20
135419.1140360676
 30
0.0
 41
30.0
 42
30.0
 43
30.0
 50
90.0
1001
AEC_XDATA_BOUND_SPACE
1070
   100
1070
     1
  0
MTEXT
  5
297
330
2
100
AcDbEntity
  8
0Wymiary-PL
370
     5
100
AcDbMText
 10
223899.203600199
 20
135449.1140360676
 30
0.0
 40
80.0
 41
0.0
 71
     5
 72
     1
  1
\A1;60
  7
ROMANS
 11
0.0000000000000001
 21
1.0
 31
0.0
 73
     1
 44
1.0
1001
ACAD
1000
MTEXTBEGIN
1070
    73
1070
     1
1070
    44
1040
1.0
1070
    74
1070
     0
1000
MTEXTEND
  0
LINE
  5
298
330
2
100
AcDbEntity
  8
0Wymiary-PL
370
     5
100
AcDbLine
 10
224220.0696578275
 20
136389.1140360676
 30
0.0
 11
224220.0696578275
 21
135449.1140360676
 31
0.0
  0
INSERT
  5
299
330
2
100
AcDbEntity
  8
0Wymiary-PL
370
     5
100
AcDbBlockReference
  2
B-DIM
 10
224220.0696578275
 20
136419.1140360676
 30
0.0
 41
30.0
 42
30.0
 43
30.0
 50
90.0
1001
AEC_XDATA_BOUND_SPACE
1070
   100
1070
     1
  0
INSERT
  5
29A
330
2
100
AcDbEntity
  8
0Wymiary-PL
370
     5
100
AcDbBlockReference
  2
B-DIM
 10
224220.0696578275
 20
135419.1140360676
 30
0.0
 41
30.0
 42
30.0
 43
30.0
 50
270.0
1001
AEC_XDATA_BOUND_SPACE
1070
   100
1070
     1
  0
MTEXT
  5
29B
330
2
100
AcDbEntity
  8
0Wymiary-PL
370
     5
100
AcDbMText
 10
224140.0696578275
 20
135919.1140360677
 30
0.0
 40
80.0
 41
0.0
 71
     5
 72
     1
  1
\A1;1000
  7
ROMANS
 11
0.0000000000000001
 21
1.0
 31
0.0
 73
     1
 44
1.0
1001
ACAD
1000
MTEXTBEGIN
1070
    73
1070
     1
1070
    44
1040
1.0
1070
    74
1070
     0
1000
MTEXTEND
  0
VIEWPORT
  5
2A5
102
{ACAD_XDICTIONARY
360
334
102
}
330
2A3
100
AcDbEntity
 67
     1
  8
0
100
AcDbViewport
 10
5.249999639556165
 20
3.999999883606678
 30
0.0
 40
14.53241403783632
 41
8.992999745766949
 68
     1
 69
     1
 12
5.249999639556165
 22
3.999999883606678
 13
0.0
 23
0.0
 14
10.0
 24
10.0
 15
10.0
 25
10.0
 16
0.0
 26
0.0
 36
1.0
 17
0.0
 27
0.0
 37
0.0
 42
50.0
 43
0.0
 44
0.0
 45
8.992999745766949
 50
0.0
 51
0.0
 72
  1000
 90
   819232
  1

281
     0
 71
     1
 74
     0
110
0.0
120
0.0
130
0.0
111
1.0
121
0.0
131
0.0
112
0.0
122
1.0
132
0.0
 79
     0
146
0.0
  0
VIEWPORT
  5
2A8
102
{ACAD_XDICTIONARY
360
336
102
}
330
2A3
100
AcDbEntity
 67
     1
  8
0
100
AcDbViewport
 10
5.249999761581421
 20
3.999999761581421
 30
0.0
 40
8.399999618530275
 41
6.399999618530274
 68
     2
 69
     2
 12
220287.2000545948
 22
134667.5157057546
 13
0.0
 23
0.0
 14
10.0
 24
10.0
 15
10.0
 25
10.0
 16
0.0
 26
0.0
 36
1.0
 17
0.0
 27
0.0
 37
0.0
 42
50.0
 43
0.0
 44
0.0
 45
14170.21428571428
 50
0.0
 51
0.0
 72
  1000
 90
   819232
  1

281
     0
 71
     1
 74
     0
110
0.0
120
0.0
130
0.0
111
1.0
121
0.0
131
0.0
112
0.0
122
1.0
132
0.0
 79
     0
146
0.0
  0
ENDSEC
  0
SECTION
  2
OBJECTS
  0
DICTIONARY
  5
B
330
0
100
AcDbDictionary
281
     1
  3
ACAD_COLOR
350
2C8
  3
ACAD_GROUP
350
2C3
  3
ACAD_LAYOUT
350
29E
  3
ACAD_MATERIAL
350
D
  3
ACAD_MLINESTYLE
350
2C4
  3
ACAD_PLOTSETTINGS
350
2C5
  3
ACAD_PLOTSTYLENAME
350
A
  3
ACAD_SCALELIST
350
2C9
  3
ACAD_TABLESTYLE
350
2CA
  3
ACAD_VISUALSTYLE
350
2A1
  3
ACDB_RECOMPOSE_DATA
350
32A
  3
AcDbVariableDictionary
350
31E
  3
CONLABELDictionary
350
2F9
  3
CONLDEFDictionary
350
2E8
  3
DWGPROPS
350
32B
  0
DICTIONARY
  5
2AE
330
2AD
100
AcDbDictionary
280
     1
281
     1
  3
ACAD_LAYERFILTERS
360
2AF
  3
ACAD_LAYERSTATES
360
2B0
  3
ACLYDICTIONARY
360
2B2
  0
DICTIONARY
  5
7
330
6
100
AcDbDictionary
280
     1
281
     1
  3
ADSK_XREC_LAYER_RECONCILED
360
8
  0
DICTIONARY
  5
18
330
17
100
AcDbDictionary
280
     1
281
     1
  3
ADSK_XREC_LAYER_RECONCILED
360
19
  0
DICTIONARY
  5
127
330
126
100
AcDbDictionary
280
     1
281
     1
  3
ADSK_XREC_LAYER_RECONCILED
360
128
  0
DICTIONARY
  5
12
330
11
100
AcDbDictionary
280
     1
281
     1
  3
ADSK_XREC_LAYER_RECONCILED
360
13
  0
DICTIONARY
  5
1C
330
1B
100
AcDbDictionary
280
     1
281
     1
  3
ADSK_XREC_LAYER_RECONCILED
360
1D
  0
DICTIONARY
  5
3
330
2
100
AcDbDictionary
280
     1
281
     1
  3
ACAD_SORTENTS
360
2E7
  0
DICTIONARY
  5
150
330
14F
100
AcDbDictionary
280
     1
281
     1
  3
ACAD_SORTENTS
360
2E6
  0
DICTIONARY
  5
32E
330
1A
100
AcDbDictionary
280
     1
281
     1
  3
ACAD_MTEXT_RT
360
32F
  0
DICTIONARY
  5
330
330
26
100
AcDbDictionary
280
     1
281
     1
  3
ACAD_MTEXT_RT
360
331
  0
DICTIONARY
  5
334
330
2A5
100
AcDbDictionary
280
     1
281
     1
  3
ACAD_XREC_ROUNDTRIP
360
335
  0
DICTIONARY
  5
336
330
2A8
100
AcDbDictionary
280
     1
281
     1
  3
ACAD_XREC_ROUNDTRIP
360
337
  0
DICTIONARY
  5
2C8
102
{ACAD_REACTORS
330
B
102
}
330
B
100
AcDbDictionary
281
     1
  0
DICTIONARY
  5
2C3
102
{ACAD_REACTORS
330
B
102
}
330
B
100
AcDbDictionary
281
     1
  0
DICTIONARY
  5
29E
102
{ACAD_REACTORS
330
B
102
}
330
B
100
AcDbDictionary
281
     1
  3
Layout1
350
2AA
  3
Model
350
29D
  0
DICTIONARY
  5
D
102
{ACAD_REACTORS
330
B
102
}
330
B
100
AcDbDictionary
281
     1
  3
ByBlock
350
2C7
  3
ByLayer
350
2C6
  3
Global
350
C
  0
DICTIONARY
  5
2C4
102
{ACAD_REACTORS
330
B
102
}
330
B
100
AcDbDictionary
281
     1
  3
Standard
350
2CB
  0
DICTIONARY
  5
2C5
102
{ACAD_REACTORS
330
B
102
}
330
B
100
AcDbDictionary
281
     1
  0
ACDBDICTIONARYWDFLT
  5
A
102
{ACAD_REACTORS
330
B
102
}
330
B
100
AcDbDictionary
281
     1
  3
Normal
350
9
100
AcDbDictionaryWithDefault
340
9
  0
DICTIONARY
  5
2C9
102
{ACAD_REACTORS
330
B
102
}
330
B
100
AcDbDictionary
281
     1
  3
A0
350
2D0
  3
A1
350
2D1
  3
A2
350
2D2
  3
A3
350
2D3
  3
A4
350
2D4
  3
A5
350
2D5
  3
A6
350
2D6
  3
A7
350
2D7
  3
A8
350
2D8
  3
A9
350
2D9
  3
B0
350
2DA
  3
B1
350
2DB
  3
B2
350
2DC
  3
B3
350
2DD
  3
B4
350
2DE
  3
B5
350
2DF
  3
B6
350
2E0
  3
B7
350
2E1
  3
B8
350
2E2
  3
B9
350
2E3
  3
C0
350
2E4
  0
DICTIONARY
  5
2CA
102
{ACAD_REACTORS
330
B
102
}
330
B
100
AcDbDictionary
281
     1
  3
Standard
350
2CC
  0
DICTIONARY
  5
2A1
102
{ACAD_REACTORS
330
B
102
}
330
B
100
AcDbDictionary
281
     1
  3
2dWireframe
350
2A0
  3
3dWireframe
350
2CF
  3
Realistic
350
2CE
  0
XRECORD
  5
32A
102
{ACAD_REACTORS
330
B
102
}
330
B
100
AcDbXrecord
280
     1
 90
        1
330
2CC
  0
DICTIONARY
  5
31E
102
{ACAD_REACTORS
330
B
102
}
330
B
100
AcDbDictionary
281
     1
  3
CANNOSCALE
350
322
  3
CMLEADERSTYLE
350
320
  3
CTABLESTYLE
350
31F
  3
DIMASSOC
350
326
  3
HIDETEXT
350
325
  3
INDEXCTL
350
324
  3
MSLTSCALE
350
321
  3
SORTENTS
350
323
  0
DICTIONARY
  5
2F9
102
{ACAD_REACTORS
330
B
102
}
330
B
100
AcDbDictionary
281
     1
  3
_el_wzb_Left_nazw_romans16
350
31D
  3
_elementy_wiezby_SKROT_Romans16
350
31C
  3
_materialy_przegrod_pl_Label1
350
31B
  3
_nazwy_przegrod_romans18
350
31A
  3
_nazwy_rysunkow_Arial37
350
319
  3
_nazwy_rysunkow_Romans18
350
318
  3
_opisy_rozne_II_Label1
350
317
  3
_opisy_rozne_II_Link1Label1
350
316
  3
_posadzki_do_zestawienia_pomieszczen_Romans17
350
315
  3
_rozne_opisy_rys_R16_right
350
314
  3
_rozne_opisy_rys_Romans12
350
313
  3
_rozne_opisy_rys_Romans16
350
312
  3
_tabelka_-_inform_i_etykiety_Romans13
350
311
  3
_tabelka_Arial15-center
350
310
  3
_tabelka_Arial151
350
30F
  3
_tabelka_Romans 10
350
30E
  3
_tabelka_Romans13
350
30D
  3
_tabelka_Romans19
350
30C
  3
ALFABET-Arial20
350
30B
  3
ALFABET-Arial26
350
30A
  3
ALFABET-Arial37
350
309
  3
Arial_27
350
308
  3
jednostki-Arial18
350
307
  3
jednostki-Arial30
350
306
  3
jednostki-Romans16
350
305
  3
miesiace-Romans17
350
304
  3
pomieszczenia-Arial 15
350
303
  3
pomieszczenia-Romans17
350
302
  3
romans16
350
301
  3
Romans_17
350
300
  3
stolarka-Arial14
350
2FF
  3
stolarka-Romans1607
350
2FE
  3
stolarka-Romans1608
350
2FD
  3
stolarkaLabel1
350
2FC
  3
tbl_PRZEGRODY
350
2FB
  3
uwag_og_na_ark_Arial18
350
2FA
  0
DICTIONARY
  5
2E8
102
{ACAD_REACTORS
330
B
102
}
330
B
100
AcDbDictionary
281
     1
  3
_elementy_wiezby_Link1
350
2F8
  3
_materialy_przegrod_pl_Link1
350
2F7
  3
_nazwy_przegrod_pl_Link1
350
2F6
  3
_nazwy_rysunkow_Arial37
350
2F5
  3
_opisy_rozne_II_Link1
350
2F4
  3
_opisy_rozne_II_Link2
350
2F3
  3
_posadzki_do_zestawienia_pomieszczen_Link1
350
2F2
  3
_rozne_opisy_rys_Link1
350
2F1
  3
_tabelka_-_inform_i_etykiety_Link1
350
2F0
  3
_uwagi_ogolne_na_arkuszu_Link1
350
2EF
  3
ALFABETLink1
350
2EE
  3
jednostkiLink1
350
2ED
  3
miesiaceLink1
350
2EC
  3
pomieszczeniaLink1
350
2EB
  3
stolarkaLink1
350
2EA
  3
tbl_PRZEGRODYLink1
350
2E9
  0
XRECORD
  5
32B
102
{ACAD_REACTORS
330
B
102
}
330
B
100
AcDbXrecord
280
     1
  1
DWGPROPS COOKIE
  2

  3

  4

  6

  7

  8
aleksandra.kot
  9

300
=
301
=
302
=
303
=
304
=
305
=
306
=
307
=
308
=
309
=
 40
8.937553842592592
 41
2452027.628880787
 42
2455965.469657118
  1

 90
        0
  0
DICTIONARY
  5
2AF
102
{ACAD_REACTORS
330
2AE
102
}
330
2AE
100
AcDbDictionary
281
     1
  0
DICTIONARY
  5
2B0
102
{ACAD_REACTORS
330
2AE
102
}
330
2AE
100
AcDbDictionary
281
     1
1001
AcLayerTools
1000
A
1000
0
  0
DICTIONARY
  5
2B2
102
{ACAD_REACTORS
330
2AE
102
}
330
2AE
100
AcDbDictionary
281
     1
1001
ACAD
1000
<All
  0
XRECORD
  5
8
102
{ACAD_REACTORS
330
7
102
}
330
7
100
AcDbXrecord
280
     1
290
     1
  0
XRECORD
  5
19
102
{ACAD_REACTORS
330
18
102
}
330
18
100
AcDbXrecord
280
     1
290
     1
  0
XRECORD
  5
128
102
{ACAD_REACTORS
330
127
102
}
330
127
100
AcDbXrecord
280
     1
290
     1
  0
XRECORD
  5
13
102
{ACAD_REACTORS
330
12
102
}
330
12
100
AcDbXrecord
280
     1
290
     1
  0
XRECORD
  5
1D
102
{ACAD_REACTORS
330
1C
102
}
330
1C
100
AcDbXrecord
280
     1
290
     1
  0
SORTENTSTABLE
  5
2E7
102
{ACAD_REACTORS
330
3
102
}
330
3
100
AcDbSortentsTable
330
2
  0
SORTENTSTABLE
  5
2E6
102
{ACAD_REACTORS
330
150
102
}
330
150
100
AcDbSortentsTable
330
14F
  0
XRECORD
  5
32F
102
{ACAD_REACTORS
330
32E
102
}
330
32E
100
AcDbXrecord
280
     1
 40
264312.0
  1
{\fArial|b0|i0|c238|p34;MOŻNA WKLEIĆ DO PROJEKTU ZAGOSPODAROWANIA TERENU}
  0
XRECORD
  5
331
102
{ACAD_REACTORS
330
330
102
}
330
330
100
AcDbXrecord
280
     1
 40
106589.0
  1
{\fArial|b0|i0|c238|p34;OŚ ODBICIA LUSTRZANEGO}
  0
XRECORD
  5
335
102
{ACAD_REACTORS
330
334
102
}
330
334
100
AcDbXrecord
280
     1
102
SHADEPLOT
 70
     0
  0
XRECORD
  5
337
102
{ACAD_REACTORS
330
336
102
}
330
336
100
AcDbXrecord
280
     1
102
SHADEPLOT
 70
     0
  0
LAYOUT
  5
2AA
102
{ACAD_XDICTIONARY
360
2AB
102
}
102
{ACAD_REACTORS
330
29E
102
}
330
29E
100
AcDbPlotSettings
  1

  2
none_device
  4
Letter_(8.50_x_11.00_Inches)
  6

 40
6.349999904632568
 41
6.349999904632568
 42
6.350006103515625
 43
6.350006103515625
 44
215.8999938964844
 45
279.3999938964844
 46
0.0
 47
0.0
 48
0.0
 49
0.0
140
0.0
141
0.0
142
1.0
143
1.0
 70
   688
 72
     0
 73
     1
 74
     5
  7
monochrome_140.ctb
 75
    16
147
1.0
148
0.0
149
0.0
100
AcDbLayout
  1
Layout1
 70
     1
 71
     1
 10
-0.2500002402958907
 20
-0.2499999962453767
 11
10.74999951940822
 21
8.249999763458733
 12
0.0
 22
0.0
 32
0.0
 14
1.049999952316284
 24
0.7999999523162842
 34
0.0
 15
9.449999570846559
 25
7.199999570846558
 35
0.0
146
0.0
 13
0.0
 23
0.0
 33
0.0
 16
1.0
 26
0.0
 36
0.0
 17
0.0
 27
1.0
 37
0.0
 76
     0
330
2A3
331
2A5
1001
ACAD_PSEXT
1000
None
1000
None
1000
Not applicable
1000
The layout will not be plotted unless a new plotter configuration name is selected.
1070
     0
  0
LAYOUT
  5
29D
102
{ACAD_XDICTIONARY
360
332
102
}
102
{ACAD_REACTORS
330
29E
102
}
330
29E
100
AcDbPlotSettings
  1

  2
PDFCreator
  4
A4
  6
RODODENDRON 5
 40
3.174999952316284
 41
3.174999952316284
 42
3.175003051757812
 43
3.17498779296875
 44
209.8886566162109
 45
297.0530090332031
 46
-0.230673193931878
 47
5.151510643959028
 48
215187.2000545948
 49
127657.5157057546
140
225387.2000545948
141
141677.5157057546
142
1.0
143
50.0
 70
 11956
 72
     1
 73
     0
 74
     4
  7
monochrome_140.ctb
 75
    25
147
0.02
148
-215187.2000545948
149
-127657.5157057546
100
AcDbLayout
  1
Model
 70
     1
 71
     0
 10
0.0
 20
0.0
 11
12.0
 21
9.0
 12
0.0
 22
0.0
 32
0.0
 14
0.0
 24
0.0
 34
0.0
 15
0.0
 25
0.0
 35
0.0
146
0.0
 13
0.0
 23
0.0
 33
0.0
 16
1.0
 26
0.0
 36
0.0
 17
0.0
 27
1.0
 37
0.0
 76
     0
330
2
331
2BC
1001
ACAD_PSEXT
1000
PDFCreator
1000
PDFCreator
1000
PDFCreator:
1000
eDoc Printer
1070
     0
  0
MATERIAL
  5
2C7
102
{ACAD_XDICTIONARY
360
33B
102
}
102
{ACAD_REACTORS
330
D
102
}
330
D
100
AcDbMaterial
  1
ByBlock
 73
     1
 78
     1
172
     1
176
     1
270
     1
274
     1
  0
MATERIAL
  5
2C6
102
{ACAD_XDICTIONARY
360
339
102
}
102
{ACAD_REACTORS
330
D
102
}
330
D
100
AcDbMaterial
  1
ByLayer
 73
     1
 78
     1
172
     1
176
     1
270
     1
274
     1
  0
MATERIAL
  5
C
102
{ACAD_XDICTIONARY
360
32C
102
}
102
{ACAD_REACTORS
330
D
102
}
330
D
100
AcDbMaterial
  1
Global
 73
     1
 78
     1
172
     1
176
     1
270
     1
274
     1
  0
MLINESTYLE
  5
2CB
102
{ACAD_REACTORS
330
2C4
102
}
330
2C4
100
AcDbMlineStyle
  2
STANDARD
 70
     0
  3

 62
   256
 51
90.0
 52
90.0
 71
     2
 49
0.5
 62
   256
  6
BYLAYER
 49
-0.5
 62
   256
  6
BYLAYER
  0
ACDBPLACEHOLDER
  5
9
102
{ACAD_REACTORS
330
A
102
}
330
A
  0
SCALE
  5
2D0
102
{ACAD_REACTORS
330
2C9
102
}
330
2C9
100
AcDbScale
 70
     0
300
1:1
140
1.0
141
0.1
290
     0
  0
SCALE
  5
2D1
102
{ACAD_REACTORS
330
2C9
102
}
330
2C9
100
AcDbScale
 70
     0
300
1:2
140
1.0
141
0.2
290
     0
  0
SCALE
  5
2D2
102
{ACAD_REACTORS
330
2C9
102
}
330
2C9
100
AcDbScale
 70
     0
300
1:2.5
140
1.0
141
0.25
290
     0
  0
SCALE
  5
2D3
102
{ACAD_REACTORS
330
2C9
102
}
330
2C9
100
AcDbScale
 70
     0
300
1:5
140
1.0
141
0.5
290
     0
  0
SCALE
  5
2D4
102
{ACAD_REACTORS
330
2C9
102
}
330
2C9
100
AcDbScale
 70
     0
300
1:7.5
140
1.0
141
0.75
290
     0
  0
SCALE
  5
2D5
102
{ACAD_REACTORS
330
2C9
102
}
330
2C9
100
AcDbScale
 70
     0
300
1:10
140
1.0
141
1.0
290
     1
  0
SCALE
  5
2D6
102
{ACAD_REACTORS
330
2C9
102
}
330
2C9
100
AcDbScale
 70
     0
300
1:20
140
1.0
141
2.0
290
     0
  0
SCALE
  5
2D7
102
{ACAD_REACTORS
330
2C9
102
}
330
2C9
100
AcDbScale
 70
     0
300
1:25
140
1.0
141
2.5
290
     0
  0
SCALE
  5
2D8
102
{ACAD_REACTORS
330
2C9
102
}
330
2C9
100
AcDbScale
 70
     0
300
1:50
140
1.0
141
5.0
290
     0
  0
SCALE
  5
2D9
102
{ACAD_REACTORS
330
2C9
102
}
330
2C9
100
AcDbScale
 70
     0
300
1:75
140
1.0
141
7.5
290
     0
  0
SCALE
  5
2DA
102
{ACAD_REACTORS
330
2C9
102
}
330
2C9
100
AcDbScale
 70
     0
300
1:100
140
1.0
141
10.0
290
     0
  0
SCALE
  5
2DB
102
{ACAD_REACTORS
330
2C9
102
}
330
2C9
100
AcDbScale
 70
     0
300
1:150
140
1.0
141
15.0
290
     0
  0
SCALE
  5
2DC
102
{ACAD_REACTORS
330
2C9
102
}
330
2C9
100
AcDbScale
 70
     0
300
1:200
140
1.0
141
20.0
290
     0
  0
SCALE
  5
2DD
102
{ACAD_REACTORS
330
2C9
102
}
330
2C9
100
AcDbScale
 70
     0
300
1:250
140
1.0
141
25.0
290
     0
  0
SCALE
  5
2DE
102
{ACAD_REACTORS
330
2C9
102
}
330
2C9
100
AcDbScale
 70
     0
300
1:500
140
1.0
141
50.0
290
     0
  0
SCALE
  5
2DF
102
{ACAD_REACTORS
330
2C9
102
}
330
2C9
100
AcDbScale
 70
     0
300
1:750
140
1.0
141
75.0
290
     0
  0
SCALE
  5
2E0
102
{ACAD_REACTORS
330
2C9
102
}
330
2C9
100
AcDbScale
 70
     0
300
1:1000
140
1.0
141
100.0
290
     0
  0
SCALE
  5
2E1
102
{ACAD_REACTORS
330
2C9
102
}
330
2C9
100
AcDbScale
 70
     0
300
1:1250
140
1.0
141
125.0
290
     0
  0
SCALE
  5
2E2
102
{ACAD_REACTORS
330
2C9
102
}
330
2C9
100
AcDbScale
 70
     0
300
1:2000
140
1.0
141
200.0
290
     0
  0
SCALE
  5
2E3
102
{ACAD_REACTORS
330
2C9
102
}
330
2C9
100
AcDbScale
 70
     0
300
1:2500
140
1.0
141
250.0
290
     0
  0
SCALE
  5
2E4
102
{ACAD_REACTORS
330
2C9
102
}
330
2C9
100
AcDbScale
 70
     0
300
1:5000
140
1.0
141
500.0
290
     0
  0
TABLESTYLE
  5
2CC
102
{ACAD_XDICTIONARY
360
2CD
102
}
102
{ACAD_REACTORS
330
2CA
102
}
330
2CA
100
AcDbTableStyle
  3
Standard
 70
     0
 71
     0
 40
0.06
 41
0.06
280
     0
281
     0
  7
Standard
140
0.18
170
     2
 62
     0
 63
     7
283
     0
274
    -2
284
     1
 64
     0
275
    -2
285
     1
 65
     0
276
    -2
286
     1
 66
     0
277
    -2
287
     1
 67
     0
278
    -2
288
     1
 68
     0
279
    -2
289
     1
 69
     0
  7
Standard
140
0.25
170
     5
 62
     0
 63
     7
283
     0
274
    -2
284
     1
 64
     0
275
    -2
285
     1
 65
     0
276
    -2
286
     1
 66
     0
277
    -2
287
     1
 67
     0
278
    -2
288
     1
 68
     0
279
    -2
289
     1
 69
     0
  7
Standard
140
0.18
170
     5
 62
     0
 63
     7
283
     0
274
    -2
284
     1
 64
     0
275
    -2
285
     1
 65
     0
276
    -2
286
     1
 66
     0
277
    -2
287
     1
 67
     0
278
    -2
288
     1
 68
     0
279
    -2
289
     1
 69
     0
  0
VISUALSTYLE
  5
2A0
102
{ACAD_REACTORS
330
2A1
102
}
330
2A1
100
AcDbVisualStyle
  2
2dWireframe
 70
     4
 71
     0
 72
     2
 73
     0
 90
        0
 40
-0.6
 41
-30.0
 62
     5
 63
     7
 74
     1
 91
        4
 64
     7
 65
   257
 75
     1
175
     1
 42
1.0
 92
        0
 66
   257
 43
1.0
 76
     1
 77
     6
 78
     2
 67
     7
 79
     5
170
     0
171
     0
290
     0
174
     0
 93
        1
 44
0.0
173
     0
291
     0
 45
0.0
1001
ACAD
1000
AcDbSavedByObjectVersion
1070
     0
  0
VISUALSTYLE
  5
2CF
102
{ACAD_REACTORS
330
2A1
102
}
330
2A1
100
AcDbVisualStyle
  2
3dWireframe
 70
     5
 71
     0
 72
     2
 73
     0
 90
        0
 40
-0.6
 41
-30.0
 62
     5
 63
     7
 74
     1
 91
        4
 64
     7
 65
   257
 75
     1
175
     1
 42
1.0
 92
        0
 66
   257
 43
1.0
 76
     1
 77
     6
 78
     2
 67
     7
 79
     5
170
     0
171
     0
290
     0
174
     0
 93
        1
 44
0.0
173
     0
291
     0
 45
0.0
1001
ACAD
1000
AcDbSavedByObjectVersion
1070
     0
  0
VISUALSTYLE
  5
2CE
102
{ACAD_REACTORS
330
2A1
102
}
330
2A1
100
AcDbVisualStyle
  2
Realistic
 70
     8
 71
     2
 72
     2
 73
     0
 90
        0
 40
-0.6
 41
-30.0
 62
     5
 63
     7
 74
     1
 91
        0
 64
     7
 65
   257
 75
     1
175
     1
 42
1.0
 92
        8
 66
     8
 43
1.0
 76
     1
 77
     6
 78
     2
 67
     7
 79
     5
170
     0
171
     0
290
     0
174
     0
 93
       13
 44
0.0
173
     0
291
     0
 45
0.0
1001
ACAD
1000
AcDbSavedByObjectVersion
1070
     0
  0
DICTIONARYVAR
  5
322
102
{ACAD_REACTORS
330
31E
102
}
330
31E
100
DictionaryVariables
280
     0
  1
1:100
  0
DICTIONARYVAR
  5
320
102
{ACAD_REACTORS
330
31E
102
}
330
31E
100
DictionaryVariables
280
     0
  1
STANDARD
  0
DICTIONARYVAR
  5
31F
102
{ACAD_REACTORS
330
31E
102
}
330
31E
100
DictionaryVariables
280
     0
  1
STANDARD
  0
DICTIONARYVAR
  5
326
102
{ACAD_REACTORS
330
31E
102
}
330
31E
100
DictionaryVariables
280
     0
  1
1
  0
DICTIONARYVAR
  5
325
102
{ACAD_REACTORS
330
31E
102
}
330
31E
100
DictionaryVariables
280
     0
  1
1
  0
DICTIONARYVAR
  5
324
102
{ACAD_REACTORS
330
31E
102
}
330
31E
100
DictionaryVariables
280
     0
  1
0
  0
DICTIONARYVAR
  5
321
102
{ACAD_REACTORS
330
31E
102
}
330
31E
100
DictionaryVariables
280
     0
  1
1
  0
DICTIONARYVAR
  5
323
102
{ACAD_REACTORS
330
31E
102
}
330
31E
100
DictionaryVariables
280
     0
  1
127
  0
OBJECT_PTR
  5
31D
102
{ACAD_REACTORS
330
2F9
102
}
330
2F9
1001
DCO15
1000
jet_dbsamples..."elementy wiezby"(_el_wzb_Left_nazw_romans16)
1000
nazw_el_wiezb
1040
1.0
1040
1.0
1040
0.0
1040
0.0
1040
0.0
1040
0.0
1040
0.0
1040
15.0
1071
        0
1071
      256
1071
        7
1071
        5
1071
        1
1000
ROMANS
1000
ByLayer
1000
#(nazw_el_wiezb)
  0
OBJECT_PTR
  5
31C
102
{ACAD_REACTORS
330
2F9
102
}
330
2F9
1001
DCO15
1000
jet_dbsamples..."elementy wiezby"(_elementy_wiezby_SKROT_Romans16)
1000
skrot_el_wiezb
1040
1.0
1040
1.0
1040
0.0
1040
0.0
1040
0.0
1040
0.0
1040
0.0
1040
16.0
1071
        0
1071
      256
1071
        9
1071
        5
1071
        1
1000
ROMANS
1000
ByLayer
1000
#(skrot_el_wiezb)
  0
OBJECT_PTR
  5
31B
102
{ACAD_REACTORS
330
2F9
102
}
330
2F9
1001
DCO15
1000
jet_dbsamples..."materialy przegrod pl"(_materialy_przegrod_pl_Label1)
1000
nazw_mat
1040
1.0
1040
1.0
1040
0.0
1040
0.0
1040
0.0
1040
0.0
1040
0.0
1040
17.0
1071
        0
1071
      256
1071
        7
1071
        5
1071
        1
1000
ROMANS
1000
ByLayer
1000
#(nazw_mat)
  0
OBJECT_PTR
  5
31A
102
{ACAD_REACTORS
330
2F9
102
}
330
2F9
1001
DCO15
1000
jet_dbsamples..."nazwy przegrod pl"(_nazwy_przegrod_romans18)
1000
nzw_przegrody
1040
1.0
1040
1.0
1040
0.0
1040
0.0
1040
0.0
1040
0.0
1040
0.0
1040
17.0
1071
        0
1071
      256
1071
        7
1071
        5
1071
        1
1000
ROMANS
1000
ByLayer
1000
{\L\C2;#(nzw_przegrody)}
  0
OBJECT_PTR
  5
319
102
{ACAD_REACTORS
330
2F9
102
}
330
2F9
1001
DCO15
1000
jet_dbsamples..."nazwy rysunkow"(_nazwy_rysunkow_Arial37)
1000
1linia
1000
2linia
1000
3linia
1040
1.0
1040
1.0
1040
0.0
1040
0.0
1040
0.0
1040
0.0
1040
0.0
1040
37.0
1071
        0
1071
      256
1071
        1
1071
        5
1071
        1
1000
ROMANS
1000
ByLayer
1000
{\fArial|b0|i0|c238|p34;#(1linia)\P#(2linia)\P#(3linia)}
  0
OBJECT_PTR
  5
318
102
{ACAD_REACTORS
330
2F9
102
}
330
2F9
1001
DCO15
1000
jet_dbsamples..."nazwy rysunkow"(_nazwy_rysunkow_Romans18)
1000
1linia
1000
2linia
1000
3linia
1040
1.0
1040
1.0
1040
0.0
1040
0.0
1040
0.0
1040
0.0
1040
0.0
1040
18.0
1071
        0
1071
      256
1071
        2
1071
        5
1071
        1
1000
ROMANS
1000
ByLayer
1000
{\Fromans.shx|c238;#(1linia)\P#(2linia)\P#(3linia)}
  0
OBJECT_PTR
  5
317
102
{ACAD_REACTORS
330
2F9
102
}
330
2F9
1001
DCO15
1000
jet_dbsamples..."opisy rozne II"(_opisy_rozne_II_Label1)
1000
opis różny
1040
1.0
1040
1.0
1040
0.0
1040
0.0
1040
0.0
1040
0.0
1040
0.0
1040
10.0
1071
        0
1071
      256
1071
        1
1071
        5
1071
        1
1000
ROMANS
1000
ByLayer
1000
#(opis różny)
  0
OBJECT_PTR
  5
316
102
{ACAD_REACTORS
330
2F9
102
}
330
2F9
1001
DCO15
1000
jet_dbsamples..."opisy rozne II"(_opisy_rozne_II_Link1Label1)
1000
opis różny
1040
1.0
1040
1.0
1040
0.0
1040
0.0
1040
0.0
1040
0.0
1040
0.0
1040
10.0
1071
        0
1071
      256
1071
        1
1071
        5
1071
        1
1000
ROMANS
1000
ByLayer
1000
#(opis różny)
  0
OBJECT_PTR
  5
315
102
{ACAD_REACTORS
330
2F9
102
}
330
2F9
1001
DCO15
1000
jet_dbsamples..."posadzki do zestawienia pomieszczen"(_posadzki_do_zestawienia_pomieszczen_Romans17)
1000
nazwa_pos
1040
1.0
1040
1.0
1040
0.0
1040
0.0
1040
0.0
1040
0.0
1040
0.0
1040
17.0
1071
        0
1071
      256
1071
        7
1071
        5
1071
        1
1000
ROMANS
1000
ByLayer
1000
#(nazwa_pos)
  0
OBJECT_PTR
  5
314
102
{ACAD_REACTORS
330
2F9
102
}
330
2F9
1001
DCO15
1000
jet_dbsamples..."rozne opisy rys"(_rozne_opisy_rys_R16_right)
1000
1L
1000
2L
1000
3L
1000
4L
1000
5L
1040
1.0
1040
1.0
1040
0.0
1040
0.0
1040
0.0
1040
0.0
1040
0.0
1040
16.0
1071
        0
1071
      256
1071
        3
1071
        5
1071
        1
1000
ROMANS
1000
ByLayer
1000
#(1L)\P#(2L)\P#(3L)\P#(4L)\P#(5L)
  0
OBJECT_PTR
  5
313
102
{ACAD_REACTORS
330
2F9
102
}
330
2F9
1001
DCO15
1000
jet_dbsamples..."rozne opisy rys"(_rozne_opisy_rys_Romans12)
1000
1L
1000
2L
1000
3L
1000
4L
1000
5L
1040
1.0
1040
1.0
1040
0.0
1040
0.0
1040
0.0
1040
0.0
1040
0.0
1040
13.0
1071
        0
1071
      256
1071
        1
1071
        5
1071
        1
1000
ROMANS
1000
ByLayer
1000
#(1L)\P#(2L)\P#(3L)\P#(4L)\P#(5L)
  0
OBJECT_PTR
  5
312
102
{ACAD_REACTORS
330
2F9
102
}
330
2F9
1001
DCO15
1000
jet_dbsamples..."rozne opisy rys"(_rozne_opisy_rys_Romans16)
1000
1L
1000
2L
1000
3L
1000
4L
1000
5L
1040
1.0
1040
1.0
1040
0.0
1040
0.0
1040
0.0
1040
0.0
1040
0.0
1040
16.0
1071
        0
1071
      256
1071
        1
1071
        5
1071
        1
1000
ROMANS
1000
ByLayer
1000
#(1L)\P#(2L)\P#(3L)\P#(4L)\P#(5L)
  0
OBJECT_PTR
  5
311
102
{ACAD_REACTORS
330
2F9
102
}
330
2F9
1001
DCO15
1000
jet_dbsamples..."tabelka - inform i etykiety"(_tabelka_-_inform_i_etykiety_Romans13)
1000
1linia
1000
2linia_ewentualna
1000
3linia_ewentualna
1040
1.0
1040
1.0
1040
0.0
1040
0.0
1040
0.0
1040
0.0
1040
0.0
1040
13.0
1071
        0
1071
      256
1071
        1
1071
        5
1071
        1
1000
ROMANS
1000
ByLayer
1000
#(1linia)\P#(2linia_ewentualna)\P#(3linia_ewentualna)
  0
OBJECT_PTR
  5
310
102
{ACAD_REACTORS
330
2F9
102
}
330
2F9
1001
DCO15
1000
jet_dbsamples..."tabelka - inform i etykiety"(_tabelka_Arial15-center)
1000
1linia
1000
2linia_ewentualna
1000
3linia_ewentualna
1040
1.0
1040
1.0
1040
0.0
1040
0.0
1040
0.0
1040
0.0
1040
0.0
1040
15.0
1071
        0
1071
      256
1071
        2
1071
        5
1071
        1
1000
ROMANS
1000
ByLayer
1000
{\fArial|b0|i0|c238|p34;#(1linia)\P#(2linia_ewentualna)\P#(3linia_ewentualna)}
  0
OBJECT_PTR
  5
30F
102
{ACAD_REACTORS
330
2F9
102
}
330
2F9
1001
DCO15
1000
jet_dbsamples..."tabelka - inform i etykiety"(_tabelka_Arial151)
1000
1linia
1040
1.0
1040
1.0
1040
0.0
1040
0.0
1040
0.0
1040
0.0
1040
0.0
1040
15.0
1071
        0
1071
      256
1071
        1
1071
        5
1071
        1
1000
ARIAL
1000
ByLayer
1000
{\fArial|b0|i0|c238|p34;#(1linia)}
  0
OBJECT_PTR
  5
30E
102
{ACAD_REACTORS
330
2F9
102
}
330
2F9
1001
DCO15
1000
jet_dbsamples..."tabelka - inform i etykiety"(_tabelka_Romans 10)
1000
1linia
1000
2linia_ewentualna
1000
3linia_ewentualna
1040
1.0
1040
1.0
1040
0.0
1040
0.0
1040
0.0
1040
0.0
1040
0.0
1040
10.0
1071
        0
1071
      256
1071
        1
1071
        5
1071
        1
1000
ARIAL
1000
ByLayer
1000
#(1linia)\P#(2linia_ewentualna)\P#(3linia_ewentualna)
  0
OBJECT_PTR
  5
30D
102
{ACAD_REACTORS
330
2F9
102
}
330
2F9
1001
DCO15
1000
jet_dbsamples..."tabelka - inform i etykiety"(_tabelka_Romans13)
1000
1linia
1000
2linia_ewentualna
1000
3linia_ewentualna
1040
1.0
1040
1.0
1040
0.0
1040
0.0
1040
0.0
1040
0.0
1040
0.0
1040
13.0
1071
        0
1071
      256
1071
        1
1071
        5
1071
        1
1000
ARIAL
1000
ByLayer
1000
#(1linia)\P#(2linia_ewentualna)\P#(3linia_ewentualna)
  0
OBJECT_PTR
  5
30C
102
{ACAD_REACTORS
330
2F9
102
}
330
2F9
1001
DCO15
1000
jet_dbsamples..."tabelka - inform i etykiety"(_tabelka_Romans19)
1000
1linia
1000
2linia_ewentualna
1000
3linia_ewentualna
1040
1.0
1040
1.0
1040
0.0
1040
0.0
1040
0.0
1040
0.0
1040
0.0
1040
19.0
1071
        0
1071
      256
1071
        2
1071
        5
1071
        1
1000
ARIAL
1000
ByLayer
1000
#(1linia)\P#(2linia_ewentualna)\P#(3linia_ewentualna)
  0
OBJECT_PTR
  5
30B
102
{ACAD_REACTORS
330
2F9
102
}
330
2F9
1001
DCO15
1000
jet_dbsamples...ALFABET(ALFABET-Arial20)
1000
liter_alf
1040
1.0
1040
1.0
1040
0.0
1040
0.0
1040
0.0
1040
0.0
1040
0.0
1040
20.0
1071
        0
1071
      256
1071
        7
1071
        5
1071
        1
1000
ARIAL
1000
ByLayer
1000
{\fArial|b0|i0|c238|p34;#(liter_alf)}
  0
OBJECT_PTR
  5
30A
102
{ACAD_REACTORS
330
2F9
102
}
330
2F9
1001
DCO15
1000
jet_dbsamples...ALFABET(ALFABET-Arial26)
1000
liter_alf
1040
1.0
1040
1.0
1040
0.0
1040
0.0
1040
0.0
1040
0.0
1040
0.0
1040
26.0
1071
        0
1071
      256
1071
        7
1071
        5
1071
        1
1000
ARIAL
1000
ByLayer
1000
{\fArial|b0|i0|c238|p34;\C140;#(liter_alf)}
  0
OBJECT_PTR
  5
309
102
{ACAD_REACTORS
330
2F9
102
}
330
2F9
1001
DCO15
1000
jet_dbsamples...ALFABET(ALFABET-Arial37)
1000
liter_alf
1040
1.0
1040
1.0
1040
0.0
1040
0.0
1040
0.0
1040
0.0
1040
0.0
1040
37.0
1071
        0
1071
      256
1071
        7
1071
        5
1071
        1
1000
ARIAL
1000
ByLayer
1000
{\fArial|b0|i0|c238|p34;#(liter_alf)}
  0
OBJECT_PTR
  5
308
102
{ACAD_REACTORS
330
2F9
102
}
330
2F9
1001
DCO15
1000
jet_dbsamples..."uwagi ogolne na arkuszu"(Arial_27)
1000
1naglowek
1000
1linia
1000
2linia
1000
3linia
1000
4linia
1000
5linia
1000
6linia
1000
7linia
1000
8linia
1000
9linia
1000
10linia
1000
11linia
1000
12linia
1040
1.0
1040
1.0
1040
0.0
1040
0.0
1040
0.0
1040
0.0
1040
0.0
1040
26.0
1071
        0
1071
      256
1071
        1
1071
        5
1071
        1
1000
ARIAL
1000
ByLayer
1000
{\fArial|b0|i0|c238|p34;#(1naglowek)\P#(1linia)\P#(2linia)\P#(3linia)\P#(4linia)\P#(5linia)\P#(6linia)\P#(7linia)\P#(8linia)\P#(9linia)\P#(10linia)\P#(11linia)\P#(12linia)}
  0
OBJECT_PTR
  5
307
102
{ACAD_REACTORS
330
2F9
102
}
330
2F9
1001
DCO15
1000
jet_dbsamples...jednostki(jednostki-Arial18)
1000
jedn
1040
1.0
1040
1.0
1040
0.0
1040
0.0
1040
0.0
1040
0.0
1040
0.0
1040
18.0
1071
        0
1071
      256
1071
        7
1071
        5
1071
        1
1000
ARIAL
1000
ByLayer
1000
{\fArial|b0|i0|c238|p34;#(jedn)}
  0
OBJECT_PTR
  5
306
102
{ACAD_REACTORS
330
2F9
102
}
330
2F9
1001
DCO15
1000
jet_dbsamples...jednostki(jednostki-Arial30)
1000
jedn
1040
1.0
1040
1.0
1040
0.0
1040
0.0
1040
0.0
1040
0.0
1040
0.0
1040
30.0
1071
        0
1071
      256
1071
        7
1071
        5
1071
        1
1000
ARIAL
1000
ByLayer
1000
{\fArial|b0|i0|c238|p34;#(jedn)}
  0
OBJECT_PTR
  5
305
102
{ACAD_REACTORS
330
2F9
102
}
330
2F9
1001
DCO15
1000
jet_dbsamples...jednostki(jednostki-Romans16)
1000
jedn
1040
1.0
1040
1.0
1040
0.0
1040
0.0
1040
0.0
1040
0.0
1040
0.0
1040
16.0
1071
        0
1071
      256
1071
        7
1071
        5
1071
        1
1000
ARIAL
1000
ByLayer
1000
#(jedn)
  0
OBJECT_PTR
  5
304
102
{ACAD_REACTORS
330
2F9
102
}
330
2F9
1001
DCO15
1000
jet_dbsamples...miesiace(miesiace-Romans17)
1000
nzw_mies
1040
1.0
1040
1.0
1040
0.0
1040
0.0
1040
0.0
1040
0.0
1040
0.0
1040
17.0
1071
        0
1071
      256
1071
        1
1071
        5
1071
        1
1000
ARIAL
1000
ByLayer
1000
#(nzw_mies)
  0
OBJECT_PTR
  5
303
102
{ACAD_REACTORS
330
2F9
102
}
330
2F9
1001
DCO15
1000
jet_dbsamples...pomieszczenia(pomieszczenia-Arial 15)
1000
nazwa
1040
1.0
1040
1.0
1040
0.0
1040
0.0
1040
0.0
1040
0.0
1040
0.0
1040
15.0
1071
        0
1071
      256
1071
        8
1071
        5
1071
        1
1000
ARIAL
1000
ByLayer
1000
{\fArial|b0|i0|c238|p34;#(nazwa)}
  0
OBJECT_PTR
  5
302
102
{ACAD_REACTORS
330
2F9
102
}
330
2F9
1001
DCO15
1000
jet_dbsamples...pomieszczenia(pomieszczenia-Romans17)
1000
nazwa
1040
1.0
1040
1.0
1040
0.0
1040
0.0
1040
0.0
1040
0.0
1040
0.0
1040
17.0
1071
        0
1071
      256
1071
        7
1071
        5
1071
        1
1000
ARIAL
1000
ByLayer
1000
#(nazwa)
  0
OBJECT_PTR
  5
301
102
{ACAD_REACTORS
330
2F9
102
}
330
2F9
1001
DCO15
1000
jet_dbsamples..."elementy wiezby"(romans16)
1000
nazw_el_wiezb
1040
1.0
1040
1.0
1040
0.0
1040
0.0
1040
0.0
1040
0.0
1040
0.0
1040
16.0
1071
        0
1071
      256
1071
        1
1071
        5
1071
        1
1000
ARIAL
1000
ByLayer
1000
#(nazw_el_wiezb)
  0
OBJECT_PTR
  5
300
102
{ACAD_REACTORS
330
2F9
102
}
330
2F9
1001
DCO15
1000
jet_dbsamples..."uwagi ogolne na arkuszu"(Romans_17)
1000
1naglowek
1000
1linia
1000
2linia
1000
3linia
1000
4linia
1000
5linia
1000
6linia
1000
7linia
1000
8linia
1000
9linia
1000
10linia
1000
11linia
1000
12linia
1040
1.0
1040
1.0
1040
0.0
1040
0.0
1040
0.0
1040
0.0
1040
0.0
1040
17.0
1071
        0
1071
      256
1071
        1
1071
        5
1071
        1
1000
ARIAL
1000
ByLayer
1000
#(1naglowek)\P#(1linia)\P#(2linia)\P#(3linia)\P#(4linia)\P#(5linia)\P#(6linia)\P#(7linia)\P#(8linia)\P#(9linia)\P#(10linia)\P#(11linia)\P#(12linia)
  0
OBJECT_PTR
  5
2FF
102
{ACAD_REACTORS
330
2F9
102
}
330
2F9
1001
DCO15
1000
jet_dbsamples...stolarka(stolarka-Arial14)
1000
STOL_TKST
1000
STOL_TKST_2linia
1040
1.0
1040
1.0
1040
0.0
1040
0.0
1040
0.0
1040
0.0
1040
0.0
1040
14.0
1071
        0
1071
      256
1071
        1
1071
        5
1071
        1
1000
ARIAL
1000
ByLayer
1000
{\fArial|b0|i0|c238|p34;#(STOL_TKST)\P#(STOL_TKST_2linia)}
  0
OBJECT_PTR
  5
2FE
102
{ACAD_REACTORS
330
2F9
102
}
330
2F9
1001
DCO15
1000
jet_dbsamples...stolarka(stolarka-Romans1607)
1000
STOL_TKST
1000
STOL_TKST_2linia
1040
1.0
1040
1.0
1040
0.0
1040
0.0
1040
0.0
1040
0.0
1040
0.0
1040
16.0
1071
        0
1071
      256
1071
        5
1071
        5
1071
        1
1000
ARIAL
1000
ByLayer
1000
#(STOL_TKST)\P#(STOL_TKST_2linia)
  0
OBJECT_PTR
  5
2FD
102
{ACAD_REACTORS
330
2F9
102
}
330
2F9
1001
DCO15
1000
jet_dbsamples...stolarka(stolarka-Romans1608)
1000
STOL_TKST
1000
STOL_TKST_2linia
1040
1.0
1040
1.0
1040
0.0
1040
0.0
1040
0.0
1040
0.0
1040
0.0
1040
16.0
1071
        0
1071
      256
1071
        5
1071
        5
1071
        1
1000
ROMANS
1000
ByLayer
1000
#(STOL_TKST)\P#(STOL_TKST_2linia)
  0
OBJECT_PTR
  5
2FC
102
{ACAD_REACTORS
330
2F9
102
}
330
2F9
1001
DCO15
1000
jet_dbsamples...stolarka(stolarkaLabel1)
1000
STOL_TKST
1000
STOL_TKST_2linia
1040
1.0
1040
1.0
1040
0.0
1040
0.0
1040
0.0
1040
0.0
1040
0.0
1040
25.0
1071
        0
1071
      256
1071
        1
1071
        5
1071
        1
1000
ROMANS
1000
ByLayer
1000
{\fArial|b0|i0|c238|p34;#(STOL_TKST)\P#(STOL_TKST_2linia)}
  0
OBJECT_PTR
  5
2FB
102
{ACAD_REACTORS
330
2F9
102
}
330
2F9
1001
DCO15
1000
jet_dbsamples...tbl_PRZEGRODY(tbl_PRZEGRODY)
1000
nazwa przegrody
1000
1w
1000
2w
1000
3w
1000
4w
1000
5w
1000
6w
1000
7w
1000
8w
1000
9w
1000
10w
1000
11w
1000
12w
1000
13w
1000
14w
1000
15w
1000
16w
1040
1.0
1040
1.0
1040
0.0
1040
0.0
1040
0.0
1040
0.0
1040
0.0
1040
17.0
1071
        0
1071
      256
1071
        1
1071
        5
1071
        1
1000
ROMANS
1000
ByLayer
1000
{\Fromans.shx|c238;\L\C2;#(nazwa przegrody)\C4;\P}#(1w)\P#(2w)\P#(3w)\P#(4w)\P#(5w)\P#(6w)\P#(7w)\P#(8w)\P#(9w)\P#(10w)\P#(11w)\P#(12w)\P#(13w)\P#(14w)\P#(15w)\P#(16w)
  0
OBJECT_PTR
  5
2FA
102
{ACAD_REACTORS
330
2F9
102
}
330
2F9
1001
DCO15
1000
jet_dbsamples..."uwagi ogolne na arkuszu"(uwag_og_na_ark_Arial18)
1000
1naglowek
1000
1linia
1000
2linia
1000
3linia
1000
4linia
1000
5linia
1000
6linia
1000
7linia
1000
8linia
1000
9linia
1000
10linia
1000
11linia
1000
12linia
1040
1.0
1040
1.0
1040
0.0
1040
0.0
1040
0.0
1040
0.0
1040
0.0
1040
18.0
1071
        0
1071
      256
1071
        1
1071
        5
1071
        1
1000
ROMANS
1000
ByLayer
1000
{\fArial|b0|i0|c238|p34;#(1naglowek)\P#(1linia)\P#(2linia)\P#(3linia)\P#(4linia)\P#(5linia)\P#(6linia)\P#(7linia)\P#(8linia)\P#(9linia)\P#(10linia)\P#(11linia)\P#(12linia)}
  0
OBJECT_PTR
  5
2F8
102
{ACAD_REACTORS
330
2E8
102
}
330
2E8
1001
DCO15
1000
jet_dbsamples..."elementy wiezby"(_elementy_wiezby_Link1)
1000
IDENTYFIKATOR
1000

1000

1070
     4
1070
     0
1070
     0
1070
     0
1070
  1024
  0
OBJECT_PTR
  5
2F7
102
{ACAD_REACTORS
330
2E8
102
}
330
2E8
1001
DCO15
1000
jet_dbsamples..."materialy przegrod pl"(_materialy_przegrod_pl_Link1)
1000
IDENTYFIKATOR
1000

1000

1070
     4
1070
     0
1070
     0
1070
     0
1070
  1024
  0
OBJECT_PTR
  5
2F6
102
{ACAD_REACTORS
330
2E8
102
}
330
2E8
1001
DCO15
1000
jet_dbsamples..."nazwy przegrod pl"(_nazwy_przegrod_pl_Link1)
1000
IDENTYFIKATOR
1000

1000

1070
     4
1070
     0
1070
     0
1070
     0
1070
  1024
  0
OBJECT_PTR
  5
2F5
102
{ACAD_REACTORS
330
2E8
102
}
330
2E8
1001
DCO15
1000
jet_dbsamples..."nazwy rysunkow"(_nazwy_rysunkow_Arial37)
1000
IDENTYFIKATOR
1000

1000

1070
     4
1070
     0
1070
     0
1070
     0
1070
  1024
  0
OBJECT_PTR
  5
2F4
102
{ACAD_REACTORS
330
2E8
102
}
330
2E8
1001
DCO15
1000
jet_dbsamples..."opisy rozne II"(_opisy_rozne_II_Link1)
1000
"opis różny"
1000
1250
1000
ASCII
1070
    12
1070
   200
1070
     0
1070
     0
1070
  1024
  0
OBJECT_PTR
  5
2F3
102
{ACAD_REACTORS
330
2E8
102
}
330
2E8
1001
DCO15
1000
jet_dbsamples..."opisy rozne II"(_opisy_rozne_II_Link2)
1000
IDENTYFIKATOR
1000

1000

1070
     4
1070
     0
1070
     0
1070
     0
1070
  1024
  0
OBJECT_PTR
  5
2F2
102
{ACAD_REACTORS
330
2E8
102
}
330
2E8
1001
DCO15
1000
jet_dbsamples..."posadzki do zestawienia pomieszczen"(_posadzki_do_zestawienia_pomieszczen_Link1)
1000
IDENTYFIKATOR
1000

1000

1070
     4
1070
     0
1070
     0
1070
     0
1070
  1024
  0
OBJECT_PTR
  5
2F1
102
{ACAD_REACTORS
330
2E8
102
}
330
2E8
1001
DCO15
1000
jet_dbsamples..."rozne opisy rys"(_rozne_opisy_rys_Link1)
1000
IDENTYFIKATOR
1000

1000

1070
     4
1070
     0
1070
     0
1070
     0
1070
  1024
  0
OBJECT_PTR
  5
2F0
102
{ACAD_REACTORS
330
2E8
102
}
330
2E8
1001
DCO15
1000
jet_dbsamples..."tabelka - inform i etykiety"(_tabelka_-_inform_i_etykiety_Link1)
1000
IDENTYFIKATOR
1000

1000

1070
     4
1070
     0
1070
     0
1070
     0
1070
  1024
  0
OBJECT_PTR
  5
2EF
102
{ACAD_REACTORS
330
2E8
102
}
330
2E8
1001
DCO15
1000
jet_dbsamples..."uwagi ogolne na arkuszu"(_uwagi_ogolne_na_arkuszu_Link1)
1000
IDENTYFIKATOR
1000

1000

1070
     4
1070
     0
1070
     0
1070
     0
1070
  1024
  0
OBJECT_PTR
  5
2EE
102
{ACAD_REACTORS
330
2E8
102
}
330
2E8
1001
DCO15
1000
jet_dbsamples...ALFABET(ALFABETLink1)
1000
IDENTYFIKATOR
1000

1000

1070
     4
1070
     0
1070
     0
1070
     0
1070
  1024
  0
OBJECT_PTR
  5
2ED
102
{ACAD_REACTORS
330
2E8
102
}
330
2E8
1001
DCO15
1000
jet_dbsamples...jednostki(jednostkiLink1)
1000
IDENTYFIKATOR
1000

1000

1070
     4
1070
     0
1070
     0
1070
     0
1070
  1024
  0
OBJECT_PTR
  5
2EC
102
{ACAD_REACTORS
330
2E8
102
}
330
2E8
1001
DCO15
1000
jet_dbsamples...miesiace(miesiaceLink1)
1000
IDENTYFIKATOR
1000

1000

1070
     4
1070
     0
1070
     0
1070
     0
1070
  1024
  0
OBJECT_PTR
  5
2EB
102
{ACAD_REACTORS
330
2E8
102
}
330
2E8
1001
DCO15
1000
jet_dbsamples...pomieszczenia(pomieszczeniaLink1)
1000
IDENTYFIKATOR
1000

1000

1070
     4
1070
     0
1070
     0
1070
     0
1070
  1024
  0
OBJECT_PTR
  5
2EA
102
{ACAD_REACTORS
330
2E8
102
}
330
2E8
1001
DCO15
1000
jet_dbsamples...stolarka(stolarkaLink1)
1000
IDENTYFIKATOR
1000

1000

1070
     4
1070
     0
1070
     0
1070
     0
1070
  1024
  0
OBJECT_PTR
  5
2E9
102
{ACAD_REACTORS
330
2E8
102
}
330
2E8
1001
DCO15
1000
jet_dbsamples...tbl_PRZEGRODY(tbl_PRZEGRODYLink1)
1000
IDENTYFIKATOR
1000

1000

1070
     4
1070
     0
1070
     0
1070
     0
1070
  1024
  0
DICTIONARY
  5
2AB
330
2AA
100
AcDbDictionary
280
     1
281
     1
  3
ACAD_XREC_ROUNDTRIP
360
338
  3
ADSK_XREC_LAYOUTTHUMBNAIL
360
2AC
  0
DICTIONARY
  5
332
330
29D
100
AcDbDictionary
280
     1
281
     1
  3
ACAD_XREC_ROUNDTRIP
360
333
  0
DICTIONARY
  5
33B
330
2C7
100
AcDbDictionary
280
     1
281
     1
  3
ACAD_XREC_ROUNDTRIP
360
33C
  0
DICTIONARY
  5
339
330
2C6
100
AcDbDictionary
280
     1
281
     1
  3
ACAD_XREC_ROUNDTRIP
360
33A
  0
DICTIONARY
  5
32C
330
C
100
AcDbDictionary
280
     1
281
     1
  3
ACAD_XREC_ROUNDTRIP
360
32D
  0
DICTIONARY
  5
2CD
330
2CC
100
AcDbDictionary
280
     1
281
     1
  3
ACAD_ROUNDTRIP_2008_TABLESTYLE_CELLSTYLEMAP
360
329
  3
ACAD_XREC_ROUNDTRIP
360
33D
  0
XRECORD
  5
338
102
{ACAD_REACTORS
330
2AB
102
}
330
2AB
100
AcDbXrecord
280
     1
102
SHADEPLOT
 70
     0
102
SHADEPLOTRESLEVEL
 70
     2
102
SHADEPLOTCUSTOMDPI
 70
   300
  0
XRECORD
  5
2AC
102
{ACAD_REACTORS
330
2AB
102
}
330
2AB
100
AcDbXrecord
280
     1
310
28000000B40000008A000000010008000000000008610000000000000000000000010000000000000000000000000000FFFFFF000000000000000000000000000000000000000000000000000000000000000000330000006600000099000000CC000000FF00000000330000333300006633000099330000CC330000FF3300
310
0000660000336600006666000099660000CC660000FF66000000990000339900006699000099990000CC990000FF99000000CC000033CC000066CC000099CC0000CCCC0000FFCC000000FF000033FF000066FF000099FF0000CCFF0000FFFF000000003300330033006600330099003300CC003300FF003300003333003333
310
33006633330099333300CC333300FF33330000663300336633006666330099663300CC663300FF66330000993300339933006699330099993300CC993300FF99330000CC330033CC330066CC330099CC3300CCCC3300FFCC330000FF330033FF330066FF330099FF3300CCFF3300FFFF330000006600330066006600660099
310
006600CC006600FF00660000336600333366006633660099336600CC336600FF33660000666600336666006666660099666600CC666600FF66660000996600339966006699660099996600CC996600FF99660000CC660033CC660066CC660099CC6600CCCC6600FFCC660000FF660033FF660066FF660099FF6600CCFF6600
310
FFFF660000009900330099006600990099009900CC009900FF00990000339900333399006633990099339900CC339900FF33990000669900336699006666990099669900CC669900FF66990000999900339999006699990099999900CC999900FF99990000CC990033CC990066CC990099CC9900CCCC9900FFCC990000FF99
310
0033FF990066FF990099FF9900CCFF9900FFFF99000000CC003300CC006600CC009900CC00CC00CC00FF00CC000033CC003333CC006633CC009933CC00CC33CC00FF33CC000066CC003366CC006666CC009966CC00CC66CC00FF66CC000099CC003399CC006699CC009999CC00CC99CC00FF99CC0000CCCC0033CCCC0066CC
310
CC0099CCCC00CCCCCC00FFCCCC0000FFCC0033FFCC0066FFCC0099FFCC00CCFFCC00FFFFCC000000FF003300FF006600FF009900FF00CC00FF00FF00FF000033FF003333FF006633FF009933FF00CC33FF00FF33FF000066FF003366FF006666FF009966FF00CC66FF00FF66FF000099FF003399FF006699FF009999FF00CC
310
99FF00FF99FF0000CCFF0033CCFF0066CCFF0099CCFF00CCCCFF00FFCCFF0000FFFF0033FFFF0066FFFF0099FFFF00CCFFFF00FFFFFF00000000000D0D0D001A1A1A00282828003535350043434300505050005D5D5D006B6B6B00787878008686860093939300A1A1A100AEAEAE00BBBBBB00C9C9C900D6D6D600E4E4E400
310
F1F1F100FFFFFF0000000000000000000000000000000000000000000000000000000000000000000000000000000000F5F5F5F5F5F5F5F5F5F5F5F5F5F5F5F5F5F5F5F5F5F5F5F5F5F5F5F5F5F5F5F5F5F5F5F5F5F5F5F5F5F5F5F5F5F5F5F5F5F5F5F5F5F5F5F5F5F5F5F5F5F5F5F5F5F5F5F5F5F5F5F5F5F5F5F5F5F5F5
310
F5F5F5F5F5F5F5F5F5F5F5F5F5F5F5F5F5F5F5F5F5F5F5F5F5F5F5F5F5F5F5F5F5F5F5F5F5F5F5F5F5F5F5F5F5F5F5F5F5F5F5F5F5F5F5F5F5F5F5F5F5F5F5F5F5F5F5F5F5F5F5F5F5F5F5F5F5F5F5F5F5F5F5F5F5F5F5F5F5F5F5F5F5F5F5F5F5F5F5F5EFF5E2E2E2E2E2E2E2E2E2E2E2E2E2E2E2E2E2E2E2E2E2E2E2E2E2
310
E2E2E2E2E2E2E2E2E2E2E2E2E2E2E2E2E2E2E2E2E2E2E2E2E2E2E2E2E2E2E2E2E2E2E2E2E2E2E2E2E2E2E2E2E2E2E2E2E2E2E2E2E2E2E2E2E2E2E2E2E2E2E2E2E2E2E2E2E2E2E2E2E2E2E2E2E2E2E2E2E2E2E2E2E2E2E2E2E2E2E2E2E2E2E2E2E2E2E2E2E2E2E2E2E2E2E2E2E2E2E2E2E2E2E2E2E2E2E2E2E2E2E2E2E2E2E2
310
E2E2E2E2E2E2E2E2E2E2E2E2E2E2E2E2E2E2E2E2E2E2E2E2F5F5EFF5E2E2E2E2E2E2E2E2E2E2E2E2E2E2E2E2E2E2E2E2E2E2E2E2E2E2E2E2E2E2E2E2E2E2E2E2E2E2E2E2E2E2E2E2E2E2E2E2E2E2E2E2E2E2E2E2E2E2E2E2E2E2E2E2E2E2E2E2E2E2E2E2E2E2E2E2E2E2E2E2E2E2E2E2E2E2E2E2E2E2E2E2E2E2E2E2E2E2E2
310
E2E2E2E2E2E2E2E2E2E2E2E2E2E2E2E2E2E2E2E2E2E2E2E2E2E2E2E2E2E2E2E2E2E2E2E2E2E2E2E2E2E2E2E2E2E2E2E2E2E2E2E2E2E2E2E2E2E2E2E2E2E2E2E2E2E2E2E2E2E2E2E2E2E2E2E2E2F5F5EFF5E2E2E2E2E2E2E2E2E2E2E2E2E2E2E2E2E2E2E2E2E2E2E2E2E2E2E2E2E2E2E2E2E2E2E2E2E2E2E2E2E2E2E2E2E2E2
310
E2E2E2E2E2E2E2E2E2E2E2E2E2E2E2E2E2E2E2E2E2E2E2E2E2E2E2E2E2E2E2E2E2E2E2E2E2E2E2E2E2E2E2E2E2E2E2E2E2E2E2E2E2E2E2E2E2E2E2E2E2E2E2E2E2E2E2E2E2E2E2E2E2E2E2E2E2E2E2E2E2E2E2E2E2E2E2E2E2E2E2E2E2E2E2E2E2E2E2E2E2E2E2E2E2E2E2E2E2E2E2E2E2E2E2E2E2E2E2E2E2E2E2E2E2E2E2
310
E2E2E2F5F5EFF5E2E2E2F5F5F5F5F5F5F5F5E2E2E2E2E2E2E2E2E2F5F5F5F5F5F5F5F5F5F5F5F5F5F5F5E2E2E2E2E2E2E2E2E2F5F5F5F5F5F5F5F5F5F5F5F5F5F5F5F5E2E2E2E2E2E2E2E2F5F5F5F5F5F5F5F5F5F5F5F5F5F5F5F5E2E2E2E2E2E2E2E2F5F5F5F5F5F5F5F5F5F5F5F5F5F5F5F5E2E2E2E2E2E2E2E2F5F5F5F5
310
F5F5F5F5F5F5F5F5F5F5F5F5E2E2E2E2E2E2E2E2E2F5F5F5F5F5F5F5F5F5F5F5F5F5F5F5E2E2E2E2E2E2E2E2E2F5F5F5F5F5F5F5F5E2E2E2F5F5EFF5E2E2E2F5E2E2E2E2E2E2E2E2E2E2E2E2E2E2E2E2E2E2E2E2E2E2E2E2E2E2E2E2E2E2E2E2E2E2E2E2E2E2E2E2E2E2E2E2E2E2E2E2E2E2E2E2E2E2E2E2E2E2E2E2E2E2E2
310
E2E2E2E2E2E2E2E2E2E2E2E2E2E2E2E2E2E2E2E2E2E2E2E2E2E2E2E2E2E2E2E2E2E2E2E2E2E2E2E2E2E2E2E2E2E2E2E2E2E2E2E2E2E2E2E2E2E2E2E2E2E2E2E2E2E2E2E2E2E2E2E2E2E2E2E2E2E2E2E2E2E2E2E2E2E2E2E2E2E2E2E2E2E2E2E2E2E2E2E2E2E2E2E2E2F5E2E2E2F5F5EFF5E2E2E2F5E2E2E2E2E2E2E2E2E2E2
310
E2E2E2E2E2E2E2E2E2E2E2E2E2E2E2E2E2E2E2E2E2E2E2E2E2E2E2E2E2E2E2E2E2E2E2E2E2E2E2E2E2E2E2E2E2E2E2E2E2E2E2E2E2E2E2E2E2E2E2E2E2E2E2E2E2E2E2E2E2E2E2E2E2E2E2E2E2E2E2E2E2E2E2E2E2E2E2E2E2E2E2E2E2E2E2E2E2E2E2E2E2E2E2E2E2E2E2E2E2E2E2E2E2E2E2E2E2E2E2E2E2E2E2E2E2E2E2
310
E2E2E2E2E2E2E2E2E2E2E2E2E2E2E2E2E2E2E2E2E2E2E2E2E2E2E2E2E2E2E2F5E2E2E2F5F5EFF5E2E2E2F5E2E2E2E2E2E2E2E2E2E2E2E2E2E2E2E2E2E2E2E2E2E2E2E2E2E2E2E2E2E2E2E2E2E2E2E2E2E2E2E2E2E2E2E2E2E2E2E2E2E2E2E2E2E2E2E2E2E2E2E2E2E2E2E2E2E2E2E2E2E2E2E2E2E2E2E2E2E2E2E2E2E2E2E2
310
E2E2E2E2E2E2E2E2E2E2E2E2E2E2E2E2E2E2E2E2E2E2E2E2E2E2E2E2E2E2E2E2E2E2E2E2E2E2E2E2E2E2E2E2E2E2E2E2E2E2E2E2E2E2E2E2E2E2E2E2E2E2E2E2E2E2E2E2E2E2E2E2E2E2E2E2E2E2E2E2E2E2E2E2F5E2E2E2F5F5EFF5E2E2E2F5E2E2E2E2E2E2E2E2E2E2E2E2E2E2E2E2E2E2E2E2E2E2E2E2E2E2E2E2E2E2E2
310
E2E2E2E2E2E2E2E2E2E2E2E2E2E2E2E2E2E2E2E2E2E2E2E2E2E2E2E2E2E2E2E2E2E2E2E2E2E2E2E2E2E2E2E2E2E2E2E2E2E2E2E2E2E2E2E2E2E2E2E2E2E2E2E2E2E2E2E2E2E2E2E2E2E2E2E2E2E2E2E2E2E2E2E2E2E2E2E2E2E2E2E2E2E2E2E2E2E2E2E2E2E2E2E2E2E2E2E2E2E2E2E2E2E2E2E2E2E2E2E2E2E2E2E2E2E2E2
310
E2E2E2E2E2E2E2E2E2E2F5E2E2E2F5F5EFF5E2E2E2F5E2E2E2E2E2E2E2E2E2E2E2E2E2E2E2E2E2E2E2E2E2E2E2E2E2E2E2E2E2E2E2E2E2E2E2E2E2E2E2E2E2E2E2E2E2E2E2E2E2E2E2E2E2E2E2E2E2E2E2E2E2E2E2E2E2E2E2E2E2E2E2E2E2E2E2E2E2E2E2E2E2E2E2E2E2E2E2E2E2E2E2E2E2E2E2E2E2E2E2E2E2E2E2E2E2
310
E2E2E2E2E2E2E2E2E2E2E2E2E2E2E2E2E2E2E2E2E2E2E2E2E2E2E2E2E2E2E2E2E2E2E2E2E2E2E2E2E2E2E2E2E2E2E2E2E2E2E2E2E2E2E2E2E2E2E2E2E2E2E2F5E2E2E2F5F5EFF5E2E2E2F5E2E2E2E2E2E2E2E2E2E2E2E2E2E2E2E2E2E2E2E2E2E2E2E2E2E2E2E2E2E2E2E2E2E2E2E2E2E2E2E2E2E2E2E2E2E2E2E2E2E2E2E2
310
E2E2E2E2E2E2E2E2E2E2E2E2E2E2E2E2E2E2E2E2E2E2E2E2E2E2E2E2E2E2E2E2E2E2E2E2E2E2E2E2E2E2E2E2E2E2E2E2E2E2E2E2E2E2E2E2E2E2E2E2E2E2E2E2E2E2E2E2E2E2E2E2E2E2E2E2E2E2E2E2E2E2E2E2E2E2E2E2E2E2E2E2E2E2E2E2E2E2E2E2E2E2E2E2E2E2E2E2E2E2E2E2E2E2E2E2F5E2E2E2F5F5EFF5E2E2E2
310
F5E2E2E2E2E2E2E2E2E2E2E2E2E2E2E2E2E2E2E2E2E2E2E2E2E2E2E2E2E2E2E2E2E2E2E2E2E2E2E2E2E2E2E2E2E2E2E2E2E2E2E2E2E2E2E2E2E2E2E2E2E2E2E2E2E2E2E2E2E2E2E2E2E2E2E2E2E2E2E2E2E2E2E2E2E2E2E2E2E2E2E2E2E2E2E2E2E2E2E2E2E2E2E2E2E2E2E2E2E2E2E2E2E2E2E2E2E2E2E2E2E2E2E2E2E2E2
310
E2E2E2E2E2E2E2E2E2E2E2E2E2E2E2E2E2E2E2E2E2E2E2E2E2E2E2E2E2E2E2E2E2E2E2E2E2E2E2E2E2E2F5E2E2E2F5F5EFF5E2E2E2F5E2E2E2E2E2E2E2E2E2E2E2E2E2E2E2E2E2E2E2E2E2E2E2E2E2E2E2E2E2E2E2E2E2E2E2E2E2E2E2E2E2E2E2E2E2E2E2E2E2E2E2E2E2E2E2E2E2E2E2E2E2E2E2E2E2E2E2E2E2E2E2E2E2
310
E2E2E2E2E2E2E2E2E2E2E2E2E2E2E2E2E2E2E2E2E2E2E2E2E2E2E2E2E2E2E2E2E2E2E2E2E2E2E2E2E2E2E2E2E2E2E2E2E2E2E2E2E2E2E2E2E2E2E2E2E2E2E2E2E2E2E2E2E2E2E2E2E2E2E2E2E2E2E2E2E2E2E2E2E2E2E2E2E2E2E2E2E2E2E2F5E2E2E2F5F5EFF5E2E2E2E2E2E2E2E2E2E2E2E2E2E2E2E2E2E2E2E2E2E2E2E2
310
E2E2E2E2E2E2E2E2E2E2E2E2E2E2E2E2E2E2E2E2E2E2E2E2E2E2E2E2E2E2E2E2E2E2E2E2E2E2E2E2E2E2E2E2E2E2E2E2E2E2E2E2E2E2E2E2E2E2E2E2E2E2E2E2E2E2E2E2E2E2E2E2E2E2E2E2E2E2E2E2E2E2E2E2E2E2E2E2E2E2E2E2E2E2E2E2E2E2E2E2E2E2E2E2E2E2E2E2E2E2E2E2E2E2E2E2E2E2E2E2E2E2E2E2E2E2E2
310
E2E2E2E2E2E2E2E2E2E2E2E2E2E2E2E2E2E2E2E2E2E2E2E2E2F5F5EFF5E2E2E2E2E2E2E2E2E2E2E2E2E2E2E2E2E2E2E2E2E2E2E2E2E2E2E2E2E2E2E2E2E2E2E2E2E2E2E2E2E2E2E2E2E2E2E2E2E2E2E2E2E2E2E2E2E2E2E2E2E2E2E2E2E2E2E2E2E2E2E2E2E2E2E2E2E2E2E2E2E2E2E2E2E2E2E2E2E2E2E2E2E2E2E2E2E2E2
310
E2E2E2E2E2E2E2E2E2E2E2E2E2E2E2E2E2E2E2E2E2E2E2E2E2E2E2E2E2E2E2E2E2E2E2E2E2E2E2E2E2E2E2E2E2E2E2E2E2E2E2E2E2E2E2E2E2E2E2E2E2E2E2E2E2E2E2E2E2E2E2E2E2E2E2E2E2E2F5F5EFF5E2E2E2E2E2E2E2E2E2E2E2E2E2E2E2E2E2E2E2E2E2E2E2E2E2E2E2E2E2E2E2E2E2E2E2E2E2E2E2E2E2E2E2E2E2
310
E2E2E2E2E2E2E2E2E2E2E2E2E2E2E2E2E2E2E2E2E2E2E2E2E2E2E2E2E2E2E2E2E2E2E2E2E2E2E2E2E2E2E2E2E2E2E2E2E2E2E2E2E2E2E2E2E2E2E2E2E2E2E2E2E2E2E2E2E2E2E2E2E2E2E2E2E2E2E2E2E2E2E2E2E2E2E2E2E2E2E2E2E2E2E2E2E2E2E2E2E2E2E2E2E2E2E2E2E2E2E2E2E2E2E2E2E2E2E2E2E2E2E2E2E2E2E2
310
E2E2E2E2F5F5EFF5E2E2E2E2E2E2E2E2E2E2E2E2E2E2E2E2E2E2E2E2E2E2E2E2E2E2E2E2E2E2E2E2E2E2E2E2E2E2E2E2E2E2E2E2E2E2E2E2E2E2E2E2E2E2E2E2E2E2E2E2E2E2E2E2E2E2E2E2E2E2E2E2E2E2E2E2E2E2E2E2E2E2E2E2E2E2E2E2E2E2E2E2E2E2E2E2E2E2E2E2E2E2E2E2E2E2E2E2E2E2E2E2E2E2E2E2E2E2E2
310
E2E2E2E2E2E2E2E2E2E2E2E2E2E2E2E2E2E2E2E2E2E2E2E2E2E2E2E2E2E2E2E2E2E2E2E2E2E2E2E2E2E2E2E2E2E2E2E2E2E2E2E2E2E2E2E2E2F5F5EFF5E2E2E2E2E2E2E2E2E2E2E2E2E2E2E2E2E2E2E2E2F5F5F5F5F5F5F5F5F5F5F5F5F5F5F5F5F5F5F5F5F5F5F5F5F5F5F5F5F5F5F5F5F5F5F5F5F5F5F5F5F5F5F5F5F5F5
310
F5F5F5F5F5F5F5F5F5F5F5F5F5F5F5F5F5F5F5F5F5F5F5F5F5F5F5F5F5F5F5F5F5F5F5F5F5F5F5F5F5F5F5F5F5F5F5F5F5F5F5F5F5F5F5F5F5F5F5F5F5F5F5F5F5F5F5F5F5F5F5F5F5F5F5F5F5F5F5F5F5F5F5F5F5F5F5F5F5F5E2E2E2E2E2E2E2E2E2E2E2E2E2E2E2E2E2E2E2E2F5F5EFF5E2E2E2E2E2E2E2E2E2E2E2E2E2
310
E2E2E2E2E2E2E2F5E2E2E2E2E2E2E2E2E2E2E2E2E2E2E2E2E2E2E2E2E2E2E2E2E2E2E2E2E2DCE2E2E2E2E2E2E2E2E2E2E2E2E2E2E2E2E2E2E2E2E2E2E2E2E2E2E2E2E2E2E2E2E2E2E2E2E2E2E2E2E2E2E2E2E2E2E2E2E2E2E2E2E2E2E2E2E2E2E2E2E2E2E2E2E2E2E2E2E2E2E2E2E2E2DCE2E2E2E2E2E2E2E2E2E2E2E2E2E2
310
E2E2E2E2E2E2E2E2E2E2E2E2E2E2E2F5E2E2E2E2E2E2E2E2E2E2E2E2E2E2E2E2E2E2E2E2F5F5EFF5E2E2E2E2E2E2E2E2E2E2E2E2E2E2E2E2E2E2E2E2F5E2E2E2E2E2E2E2E2E2E2E2E2E2E2E2E2E2E2E2E2E2E2E2E2E2E2E2E2E2DCE2E2E2E2E2E2E2E2E2E2E2E2E2E2E2E2E2E2E2E2E2E2E2E2E2E2E2E2E2E2E2E2E2E2E2E2
310
E2E2E2E2E2E2E2E2E2E2E2E2E2E2E2E2E2E2E2E2E2E2E2E2E2E2E2E2E2E2E2E2E2E2E2E2E2E2DCE2E2E2E2E2E2E2E2E2E2E2E2E2E2E2E2E2E2E2E2E2E2E2E2E2E2E2E2E2F5E2E2E2E2E2E2E2E2E2E2E2E2E2E2E2E2E2E2E2E2F5F5EFF5E2E2E2E2E2E2E2E2E2E2E2E2E2E2E2E2E2E2E2E2F5E2E2E2E2E2E2E2E2E2E2E2E2E2
310
E2E2E2E2E2E2E2E2E2E2E2E2E2E2E2E2DCE2E2E2E2E2E2E2E2E2E2E2E2E2E2E2E2E2E2E2E2E2E2E2E2E2E2E2E2E2E2E2E2E2E2E2E2E2E2E2E2E2E2E2E2E2E2E2E2E2E2E2E2E2E2E2E2E2E2E2E2E2E2E2E2E2E2E2E2E2E2E2E2E2E2DCE2E2E2E2E2E2E2E2E2E2E2E2E2E2E2E2E2E2E2E2E2E2E2E2E2E2E2E2E2F5E2E2E2E2E2
310
E2E2E2E2E2E2E2E2E2E2E2E2E2E2E2F5F5EFF5E2E2E2E2E2E2E2E2E2E2E2E2E2E2E2E2E2E2E2E2F5E2E2E2E2E2E2E2E2E2E2E2E2E2E2E2E2E2E2E2E2E2E2E2E2E2E2E2E2E2DCE2E2E2E2E2E2E2E2E2E2E2E2E2E2E2E2E2E2E2E2E2E2E2E2E2E2E2E2E2E2E2E2E2E2E2E2E2E2E2E2E2E2E2E2E2E2E2E2E2E2E2E2E2E2E2E2E2
310
E2E2E2E2E2E2E2E2E2E2E2E2E2E2E2E2E2DCE2E2E2E2E2E2E2E2E2E2E2E2E2E2E2E2E2E2E2E2E2E2E2E2E2E2E2E2E2F5E2E2E2E2E2E2E2E2E2E2E2E2E2E2E2E2E2E2E2E2F5F5EFF5E2E2E2F5E2E2E2E2E2E2E2E2E2E2E2E2E2E2E2E2F5E2E2E2E2E2E2E2E2E2E2E2E2E2E2E2E2E2E2E2E2E2E2E2E2E2E2E2E2E2DCE2E2E2E2
310
E2E2E2E2E2E2E2272727E2E22727E2E2E2E2E2E2E2E2E2E2E2E2E2E2E2E2E2E2E2E2E2E2E2E2E2E2E2E2E2E2E2E2E2E2E2E2E2E2E2E2E2E2E2E2E2E2E2E2E2E2E2E2E2E2E2E2DCE2E2E2E2E2E2E2E2E2E2E2E2E2E2E2E2E2E2E2E2E2E2E2E2E2E2E2E2E2F5E2E2E2E2E2E2E2E2E2E2E2E2E2E2E2E2F5E2E2E2F5F5EFF5E2E2
310
E2F5E2E2E2E2E2E2E2E2E2E2E2E2E2E2E2E2F5E2E2E2E2E2E2E2E2E2E2E2E2E2E2E2E2E2E2E2E2E2E2E2E2E2E2E2E2E2DCE2E2E2E2E2E2E2E2E2E2E2272727272727272727E2E2E2E2E2E2E2E2E2E2E2E2E2E2E2E2E2E2E2E2E2E2E2E2E2E2E2E2E2E2E2E2E2E2E2E2E2E2E2E2E2E2E2E2E2E2E2E2E2E2E2E2E2E2DCE2E2E2
310
E2E2E2E2E2E2E2E2E2E2E2E2E2E2E2E2E2E2E2E2E2E2E2E2E2E2F5E2E2E2E2E2E2E2E2E2E2E2E2E2E2E2E2F5E2E2E2F5F5EFF5E2E2E2F5E2E2E2E2E2E2E2E2E2E2E2E2E2E2E2E2F5E2E2E2E2E2E2E2E2E2E2E2E2E2E2E2E2E2E2E2E2E2E2E2E2E2E2E2E2E2DCE2E2E2E2E2E2E2E2E2E2E2272727272727272727E2E2E2E2E2
310
E2E2E2E2E2E2E2E2E2E2E2E2E2E2E2E2E2E2E2E2E2E2E2E2E2E2E2E2E2E2E2E2E2E2E2E2E2E2E2E2E2E2E2E2E2E2E2E2E2DCE2E2E2E2E2E2E2E2E2E2E2E2E2E2E2E2E2E2E2E2E2E2E2E2E2E2E2E2E2F5E2E2E2E2E2E2E2E2E2E2E2E2E2E2E2E2F5E2E2E2F5F5EFF5E2E2E2F5E2E2E2E2E2E2E2E2E2E2E2E2E2E2E2E2F5E2E2
310
E2E2E2E2E2E2E2E2E2E2E2E2E2E2E2E2E2E2E2E2E2E2E2E2E2E2E2DCE2E2E2E2E2E2E2E2E2E2E2E2E2E2E2E2E2E2E2E2E2E2E2E2E2E2E2E2E2E2E2E2E2E2E2E2E2E2E2E2E2E2E2E2E2E2E2E2E2E2E2E2E2E2E2E2E2E2E2E2E2E2E2E2E2E2E2E2E2E2E2E2E2E2DCE2E2E2E2E2E2E2E2E2E2E2E2E2E2E2E2E2E2E2E2E2E2E2E2
310
E2E2E2E2E2F5E2E2E2E2E2E2E2E2E2E2E2E2E2E2E2E2F5E2E2E2F5F5EFF5E2E2E2F5E2E2E2E2E2E2E2E2E2E2E2E2E2E2E2E2F5E2E2E2E2E2E2E2E2E2E2E2E2E2E2E2E2E2E2E2E2E2E2E2E2E2E2E2E2E2DCE2E2E2E2E2E2E2E2E2E2E2E2E2E2E2E2E2E2E2E2E2E2E2E2E2E2E2E2E2E2E2E2E2E2E2E2E2E2E2E2E2E2E2E2E2E2
310
E2E2E2E2E2E2E2E2E2E2E2E2E2E2E2E2E2E2E2E2E2E2E2E2E2E2E2E2DCE2E2E2E2E2E2E2E2E2E2E2E2E2E2E2E2E2E2E2E2E2E2E2E2E2E2E2E2E2F5E2E2E2E2E2E2E2E2E2E2E2E2E2E2E2E2F5E2E2E2F5F5EFF5E2E2E2F5E2E2E2E2E2E2E2E2E2E2E2E2E2E2E2E2F5E2E2E2E2E2E2E2E2E2E2E2E2E2E2E2E2E2E2E2E2E2E2E2
310
E2E2E2E2E2E2DCE2E2E2E2E2E2E2E2E2E2E2E2E2E2E2E2E2E2E2E2E2E2E2E2E2E2E2E2E2E2E2E2E2E2E2E2E2E2E2E2E2E2E2E2E2E2E2E2E2E2E2E2E2E2E2E2E2E2E2E2E2E2E2E2E2E2E2E2E2E2E2E2E2E2DCE2E2E2E2E2E2E2E2E2E2E2E2E2E2E2E2E2E2E2E2E2E2E2E2E2E2E2E2E2F5E2E2E2E2E2E2E2E2E2E2E2E2E2E2E2
310
E2F5E2E2E2F5F5EFF5E2E2E2F5E2E2E2E2E2E2E2E2E2E2E2E2E2E2E2E2F5E2E2E2E2E2E2E2E2E2E2E2E2E2E2E2E2E2E2E2E2E2E2E2E2E2E2E2E2E2DCE2E2E2E2E2E2E2E2E2E2E2E2E2E2E2E2E2E2E2E2E2E2E2E2E2E2E2E2E2E2E2E2E2E2E2E2E2E2E2E2E2E2E2E2E2E2E2E2E2E2E2E2E2E2E2E2E2E2E2E2E2E2E2E2E2E2E2
310
E2E2E2E2E2E2E2DCE2E2E2E2E2E2E2E2E2E2E2E2E2E2E2E2E2E2E2E2E2E2E2E2E2E2E2E2E2F5E2E2E2E2E2E2E2E2E2E2E2E2E2E2E2E2F5E2E2E2F5F5EFF5E2E2E2F5E2E2E2E2E2E2E2E2E2E2E2E2E2E2E2E2F5E2E2E2E2E2E2E2E2E2E2E2E2E2E2E2E2E2E2E2E2E2E2E2E2E2E2E2E2E2DCE2E2E2E2E2E2E2E2E2E2E2E2E2E2
310
E2E2E2E2E2E2E2E2E2E2E2E2E2E2E2E2E2E2E2E2E2E2E2E2E2E2E2E2E2E2E2E2E2E2E2E2E2E2E2E2E2E2E2E2E2E2E2E2E2E2E2E2E2E2E2E2E2E2E2E2DCE2E2E2E2E2E2E2E2E2E2E2E2E2E2E2E2E2E2E2E2E2E2E2E2E2E2E2E2E2F5E2E2E2E2E2E2E2E2E2E2E2E2E2E2E2E2F5E2E2E2F5F5EFF5E2E2E2F5E2E2E2E2E2E2E2E2
310
E2E2E2E2E2E2E2E2F5E2E2E2E2E2E2E2E2E2E2E2E2E2E2E2E2E2E2E2E2E2E2E2E2E2E2E2E2E2DCE2E2E2E2E2E2E2E2E2E2E2E2E2E2E2E2E2E2E2E2E2E2E2E2E2E2E2E2E2E2E2E2E2E2E2E2E2E2E2E2E2E2E2E2E2E2E2E2E2E2E2E2E2E2E2E2E2E2E2E2E2E2E2E2E2E2E2E2E2E2E2E2E2E2DCE2E2E2E2E2E2E2E2E2E2E2E2E2
310
E2E2E2E2E2E2E2E2E2E2E2E2E2E2E2E2F5E2E2E2E2E2E2E2E2E2E2E2E2E2E2E2E2F5E2E2E2F5F5EFF5E2E2E2F5E2E2E2E2E2E2E2E2E2E2E2E2E2E2E2E2F5E2E2E2E2E2E2E2E2E2E2E2E2E2E2E2E2E2E2E2E2E2E2E2E2E2E2E2E2E2DCE2E2E2E2E2E2E2E2E2E2E2E2E2E2E2E2E2E2E2E2E2E2E2E2E2E2E2E2E2E2E2E2E2E2E2
310
E2E2E2E2E2E2E2E2E2E2E2E2E2E2E2E2E2E2E2E2E2E2E2E2E2E2E2E2E2E2E2E2E2E2E2E2E2E2E2DCE2E2E2E2E2E2E2E2E2E2E2E2E2E2E2E2E2E2E2E2E2E2E2E2E2E2E2E2E2F5E2E2E2E2E2E2E2E2E2E2E2E2E2E2E2E2F5E2E2E2F5F5EFF5E2E2E2F5E2E2E2E2E2E2E2E2E2E2E2E2E2E2E2E2F5E2E2E2E2E2E2E2E2E2E2E2E2
310
E2E2E2E2E2E2E2E2E2E2E2E2E2E2E2E2E2DCE2E2E2E2E2E2E2E2E2E2E2E2E2E2E2E2E2E2E2E2E2E2E2E2E2E2E2E2E2E2E2E2E2E2E2E2E2E2E2E2E2E2E2E2E2E2E2E2E2E2E2E2E2E2E2E2E2E2E2E2E2E2E2E2E2E2E2E2E2E2E2E2E2E2DCE2E2E2E2E2E2E2E2E2E2E2E2E2E2E2E2E2E2E2E2E2E2E2E2E2E2E2E2E2F5E2E2E2E2
310
E2E2E2E2E2E2E2E2E2E2E2E2F5E2E2E2F5F5EFF5E2E2E2F5E2E2E2E2E2E2E2E2E2E2E2E2E2E2E2E2F5E2E2E2E2E2E2E2E2E2E2E2E2E2E2E2E2E2E2E2E2E2E2E2E2E2E2E2E2E2DCE2E2E2E2E2E2E2E2E2E2E2E2E2E2E2E2E2E2E2E2E2E2E2E2E2E2E2E2E2E2E2E2E2E2E2E2E2E2E2E2E2E2E2E2E2E2E2E2E2E2E2E2E2E2E2E2
310
E2E2E2E2E2E2E2E2E2E2E2E2E2E2E2E2E2E2DCE2E2E2E2E2E2E2E2E2E2E2E2E2E2E2E2E2E2E2E2E2E2E2E2E2E2E2E2E2F5E2E2E2E2E2E2E2E2E2E2E2E2E2E2E2E2F5E2E2E2F5F5EFF5E2E2E2F5E2E2E2E2E2E2E2E2E2E2E2E2E2E2E2E2F5E2E2E2E2E2E2E2E2E2E2E2E2E2E2E2E2E2E2E2E2E2E2E2E2E2E2E2E2E2DCE2E2E2
310
E2E2E2E2E2E2E2E2E2E2E2E2E2E2E2E2E2E2E2E2E2E2E2E2E2E2E2E2E2E2E2E2E2E2E2E2E2E2E2E2E2E2E2E2E2E2E2E2E2E2E2E2E2E2E2E2E2E2E2E2E2E2E2E2E2E2E2E2E2E2E2DCE2E2E2E2E2E2E2E2E2E2E2E2E2E2E2E2E2E2E2E2E2E2E2E2E2E2E2E2E2F5E2E2E2E2E2E2E2E2E2E2E2E2E2E2E2E2F5E2E2E2F5F5EFF5E2
310
E2E2F5E2E2E2E2E2E2E2E2E2E2E2E2E2E2E2E2F5E2E2E2E2E2E2E2E2E2E2E2E2E2E2E2E2E2E2E2E2E2E2E2E2E2E2E2E2E2DCE2E2E2E2E2E2E2E2E2E2E2E2E2E2E2E2E2E2E2E2E2E2E2E2E2E2E2E2E2E2E2E2E2E2E2E2E2E2E2E2E2E2E2E2E2E2E2E2E2E2E2E2E2E2E2E2E2E2E2E2E2E2E2E2E2E2E2E2E2E2E2E2E2E2DCE2E2
310
E2E2E2E2E2E2E2E2E2E2E2E2E2E2E2E2E2E2E2E2E2E2E2E2E2E2E2F5E2E2E2E2E2E2E2E2E2E2E2E2E2E2E2E2F5E2E2E2F5F5EFF5E2E2E2F5E2E2E2E2E2E2E2E2E2E2E2E2E2E2E2E2F5E2E2E2E2E2E2E2E2E2E2E2E2E2E2E2E2E2E2E2E2E2E2E2E2E2E2E2E2E2DCE2E2E2E2E2E2E2E2E2E2E2E2E2E2E2E2E2E2E2E2E2E2E2E2
310
E2E2E2E2E2E2E2E2E2E2E2E2E2E2E2E2E2E2E2E2E2E2E2E2E2E2E2E2E2E2E2E2E2E2E2E2E2E2E2E2E2E2E2E2E2E2E2E2E2E2DCE2E2E2E2E2E2E2E2E2E2E2E2E2E2E2E2E2E2E2E2E2E2E2E2E2E2E2E2E2F5E2E2E2E2E2E2E2E2E2E2E2E2E2E2E2E2F5E2E2E2F5F5EFF5E2E2E2F5E2E2E2E2E2E2E2E2E2E2E2E2E2E2E2E2F5E2
310
E2E2E2E2E2E2E2E2E2E2E2E2E2E2E2E2E2E2E2E2E2E2E2E2E2E2E2E2DCE2E2E2E2E2E2E2E2E2E2E2E2E2E2E2E2E2E2E2E2E2E2E2E2E2E2E2E2E2E2E2E2E2E2E2E2E2E2E2E2E2E2E2E2E2E2E2E2E2E2E2E2E2E2E2E2E2E2E2E2E2E2E2E2E2E2E2E2E2E2E2E2E2E2DCE2E2E2E2E2E2E2E2E2E2E2E2E2E2E2E2E2E2E2E2E2E2E2
310
E2E2E2E2E2E2F5E2E2E2E2E2E2E2E2E2E2E2E2E2E2E2E2F5E2E2E2F5F5EFF5E2E2E2F5E2E2E2E2E2E2E2E2E2E2E2E2E2E2E2E2F5E2E2E2E2E2E2E2E2E2E2E2E2E2E2E2E2E2E2E2E2E2E2E2E2E2E2E2E2E2DCE2E2E2E2E2E2E2E2E2E2E2E2E2E2E2E2E2E2E2E2E2E2E2E2E2E2E2E2E2E2E2E2E2E2E2E2E2E2E2E2E2E2E2E2E2
310
E2E2E2E2E2E2E2E2E2E2E2E2E2E2E2E2E2E2E2E2E2E2E2E2E2E2E2E2E2DCE2E2E2E2E2E2E2E2E2E2E2E2E2E2E2E2E2E2E2E2E2E2E2E2E2E2E2E2E2F5E2E2E2E2E2E2E2E2E2E2E2E2E2E2E2E2F5E2E2E2F5F5EFF5E2E2E2E2E2E2E2E2E2E2E2E2E2E2E2E2E2E2E2E2F5E2E2E2E2E2E2E2E2E2E2E2E2E2E2E2E2E2E2E2E2E2E2
310
E2E2E2E2E2E2E2DCE2E2E2E2E2E2E2E2E2E2E2E2E2E2E2E2E2E2E2E2E2E2E2E2E2E2E2E2E2E2E2E2E2E2E2E2E2E2E2E2E2E2E2E2E2E2E2E2E2E2E2E2E2E2E2E2E2E2E2E2E2E2E2E2E2E2E2E2E2E2E2E2E2E2DCE2E2E2E2E2E2E2E2E2E2E2E2E2E2E2E2E2E2E2E2E2E2E2E2E2E2E2E2E2F5E2E2E2E2E2E2E2E2E2E2E2E2E2E2
310
E2E2E2E2E2E2F5F5EFF5E2E2E2E2E2E2E2E2E2E2E2E2E2E2E2E2E2E2E2E2F5E2E2E2E2E2E2E2E2E2E2E2E2E2E2E2E2E2E2E2E2E2E2E2E2E2E2E2E2E2DCE2E2E2E2E2E2E2E2E2E2E2E2E2E2E2E2E2E2E2E2E2E2E2E2E2E2E2E2E2E2E2E2E2E2E2E2E2E2E2E2E2E2E2E2E2E2E2E2E2E2E2E2E2E2E2E2E2E2E2E2E2E2E2E2E2E2
310
E2E2E2E2E2E2E2E2DCE2E2E2E2E2E2E2E2E2E2E2E2E2E2E2E2E2E2E2E2E2E2E2E2E2E2E2E2E2F5E2E2E2E2E2E2E2E2E2E2E2E2E2E2E2E2E2E2E2E2F5F5EFF5E2E2E2E2E2E2E2E2E2E2E2E2E2E2E2E2E2E2E2E2F5E2E2E2E2E2E2E2E2E2E2E2E2E2E2E2E2E2E2E2E2E2E2E2E2E2E2E2E2E2DCE2E2E2E2E2E2E2E2E2E2E2E2E2
310
E2E2E2E2E2E2E2E2E2E2E2E2E2E2E2E2E2E2E2E2E2E2E2E2E2E2E2E2E2E2E2E2E2E2E2E2E2E2E2E2E2E2E2E2E2E2E2E2E2E2E2E2E2E2E2E2E2E2E2E2E2DCE2E2E2E2E2E2E2E2E2E2E2E2E2E2E2E2E2E2E2E2E2E2E2E2E2E2E2E2E2F5E2E2E2E2E2E2E2E2E2E2E2E2E2E2E2E2E2E2E2E2F5F5EFF5E2E2E2E2E2E2E2E2E2E2E2
310
E2E2E2E2E2E2E2E2E2F5E2E2E2E2E2E2E2E2E2E2E2E2E2E2E2E2E2E2E2E2E2E2E2E2E2E2E2E2E2DCE2E2E2E2E2E2E2E2E2E2E2E2E2E2E2E2E2E2E2E2E2E2E2E2E2E2E2E2E2E2E2E2E2E2E2E2E2E2E2E2E2E2E2E2E2E2E2E2E2E2E2E2E2E2E2E2E2E2E2E2E2E2E2E2E2E2E2E2E2E2E2E2E2E2DCE2E2E2E2E2E2E2E2E2E2E2E2
310
E2E2E2E2E2E2E2E2E2E2E2E2E2E2E2E2E2F5E2E2E2E2E2E2E2E2E2E2E2E2E2E2E2E2E2E2E2E2F5F5EFF5E2E2E2E2E2E2E2E2E2E2E2E2E2E2E2E2E2E2E2E2F5E2E2E2E2E2E2E2E2E2E2E2E2E2E2E2E2E2E2E2E2E2E2E2E2E2E2E2E2E2DCE2E2E2E2E2E2E2E2E2E2E2E2E2E2E2E2E2E2E2E2E2E2E2E2E2E2E2E2E2E2E2E2E2E2
310
E2E2E2E2E2E2E2E2E2E2E2E2E2E2E2E2E2E2E2E2E2E2E2E2E2E2E2E2E2E2E2E2E2E2E2E2E2E2E2E2DCE2E2E2E2E2E2E2E2E2E2E2E2E2E2E2E2E2E2E2E2E2E2E2E2E2E2E2E2E2F5E2E2E2E2E2E2E2E2E2E2E2E2E2E2E2E2E2E2E2E2F5F5EFF5E2E2E2E2E2E2E2E2E2E2E2E2E2E2E2E2E2E2E2E2F5E2E2E2E2E2E2E2E2E2E2E2
310
E2E2E2E2E2E2E2E2E2E2E2E2E2E2E2E2E2E2DCE2E2E2E2E2E2E2E2E2E2E2E2E2E2E2E2E2E2E2E2E2E2E2E2E2E2E2E2E2E2E2E2E2E2E2E2E2E2E2E2E2E2E2E2E2E2E2E2E2E2E2E2E2E2E2E2E2E2E2E2E2E2E2E2E2E2E2E2E2E2E2E2E2E2DCE2E2E2E2E2E2E2E2E2E2E2E2E2E2E2E2E2E2E2E2E2E2E2E2E2E2E2E2E2F5E2E2E2
310
E2E2E2E2E2E2E2E2E2E2E2E2E2E2E2E2E2F5F5EFF5E2E2E2E2E2E2E2E2E2E2E2E2E2E2E2E2E2E2E2E2F5E2E2E2E2E2E2E2E2E2E2E2E2E2E2E2E2E2E2E2E2E2E2E2E2E2E2E2E2E2DCE2E2E2E2E2E2E2E2E2E2E2E2E2E2E2E2E2E2E2E2E2E2E2E2E2E2E2E2E2E2E2E2E2E2E2E2E2E2E2E2E2E2E2E2E2E2E2E2E2E2E2E2E2E2E2
310
E2E2E2E2E2E2E2E2E2E2E2E2E2E2E2E2E2E2E2DCE2E2E2E2E2E2E2E2E2E2E2E2E2E2E2E2E2E2E2E2E2E2E2E2E2E2E2E2E2F5E2E2E2E2E2E2E2E2E2E2E2E2E2E2E2E2E2E2E2E2F5F5EFF5E2E2E2E2E2E2E2E2E2E2E2E2E2E2E2E2E2E2E2E2F5E2E2E2E2E2E2E2E2E2E2E2E2E2E2E2E2E2E2E2E2E2E2E2E2E2E2E2E2E2DCE2E2
310
E2E2E2E2E2E2E2E2E2E2E2E2E2E2E2E2E2E2E2E2E2E2E2E2E2E2E2E2E2E2E2E2E2E2E2E2E2E2E2E2E2E2E2E2E2E2E2E2E2E2E2E2E2E2E2E2E2E2E2E2E2E2E2E2E2E2E2E2E2E2E2E2DCE2E2E2E2E2E2E2E2E2E2E2E2E2E2E2E2E2E2E2E2E2E2E2E2E2E2E2E2E2F5E2E2E2E2E2E2E2E2E2E2E2E2E2E2E2E2E2E2E2E2F5F5EFF5
310
E2E2E2E2E2E2E2E2E2E2E2E2E2E2E2E2E2E2E2E2F5E2E2E2E2E2E2E2E2E2E2E2E2E2E2E2E2E2E2E2E2E2E2E2E2E2E2E2E2E2DCE2E2E2E2E2E2E2E2E2E2E2E2E2E2E2E2E2E2E2E2E2E2E2E2E2E2E2E2E2E2E2E2E2E2E2E2E2E2E2E2E2E2E2E2E2E2E2E2E2E2E2E2E2E2E2E2E2E2E2E2E2E2E2E2E2E2E2E2E2E2E2E2E2E2DCE2
310
E2E2E2E2E2E2E2E2E2E2E2E2E2E2E2E2E2E2E2E2E2E2E2E2E2E2E2E2F5E2E2E2E2E2E2E2E2E2E2E2E2E2E2E2E2E2E2E2E2F5F5EFF5E2E2E2F5E2E2E2E2E2E2E2E2E2E2E2E2E2E2E2E2F5E2E2E2E2E2E2E2E2E2E2E2E2E2E2E2E2E2E2E2E2E2E2E2E2E2E2E2E2E2DCE2E2E2E2E2E2E2E2E2E2E2E2E2E2E2E2E2E2E2E2E2E2E2
310
E2E2E2E2E2E2E2E2E2E2E2E2E2E2E2E2E2E2E2E2E2E2E2E2E2E2E2E2E2E2E2E2E2E2E2E2E2E2E2E2E2E2E2E2E2E2E2E2E2E2E2DCE2E2E2E2E2E2E2E2E2E2E2E2E2E2E2E2E2E2E2E2E2E2E2E2E2E2E2E2E2F5E2E2E2E2E2E2E2E2E2E2E2E2E2E2E2E2F5E2E2E2F5F5EFF5E2E2E2F5E2E2E2E2E2E2E2E2E2E2E2E2E2E2E2E2F5
310
E2E2E2E2E2E2E2E2E2E2E2E2E2E2E2E2E2E2E2E2E2E2E2E2E2E2E2E2E2DCE2E2E2E2E2E2E2E2E2E2E2E2E2E2E2E2E2E2E2E2E2E2E2E2E2E2E2E2E2E2E2E2E2E2E2E2E2E2E2E2E2E2E2E2E2E2E2E2E2E2E2E2E2E2E2E2E2E2E2E2E2E2E2E2E2E2E2E2E2E2E2E2E2E2DCE2E2E2E2E2E2E2E2E2E2E2E2E2E2E2E2E2E2E2E2E2E2
310
E2E2E2E2E2E2E2F5E2E2E2E2E2E2E2E2E2E2E2E2E2E2E2E2F5E2E2E2F5F5EFF5E2E2E2F5E2E2E2E2E2E2E2E2E2E2E2E2E2E2E2E2F5E2E2E2E2E2E2E2E2E2E2E2E2E2E2E2E2E2E2E2E2E2E2E2E2E2E2E2E2E2DCE2E2E2E2E2E2E2E2E2E2E2E2E2E2E2E2E2E2E2E2E2E2E2E2E2E2E2E2E2E2E2E2E2E2E2E2E2E2E2E2E2E2E2E2
310
E2E2E2E2E2E2E2E2E2E2E2E2E2E2E2E2E2E2E2E2E2E2E2E2E2E2E2E2E2E2DCE2E2E2E2E2E2E2E2E2E2E2E2E2E2E2E2E2E2E2E2E2E2E2E2E2E2E2E2E2F5E2E2E2E2E2E2E2E2E2E2E2E2E2E2E2E2F5E2E2E2F5F5EFF5E2E2E2F5E2E2E2E2E2E2E2E2E2E2E2E2E2E2E2E2F5E2E2E2E2E2E2E2E2E2E2E2E2E2E2E2E2E2E2E2E2E2
310
E2E2E2E2E2E2E2E2DCE2E2E2E2E2E2E2E2E2E2E2E2E2E2E2E2E2E2E2E2E2E2E2E2E2E2E2E2E2E2E2E2E2E2E2E2E2BEE2E2E2E2E2E2E2E2E2E2E2E2E2E2E2E2E2E2E2E2E2E2E2E2E2E2E2E2E2E2E2E2E2E2E2E2DCE2E2E2E2E2E2E2E2E2E2E2E2E2E2E2E2E2E2E2E2E2E2E2E2E2E2E2E2E2F5E2E2E2E2E2E2E2E2E2E2E2E2E2
310
E2E2E2F5E2E2E2F5F5EFF5E2E2E2F5E2E2E2E2E2E2E2E2E2E2E2E2E2E2E2E2F5E2E2E2E2E2E2E2E2E2E2E2E2E2E2E2E2E2E2E2E2E2E2E2E2E2E2E2E2E2DCE2E2E2E2E2E2E2E2E2E2E2E2E2E2E2E2E2E2E2E2E2E2E2E2E2E2E2E2E2E2E2E2E2E2E2E227BEE2E2E2E2E2E2E2E2E2E2E2E2E2E2E2E2E2E2E2E2E2E2E2E2E2E2E2
310
E2E2E2E2E2E2E2E2E2DCE2E2E2E2E2E2E2E2E2E2E2E2E2E2E2E2E2E2E2E2E2E2E2E2E2E2E2E2E2F5E2E2E2E2E2E2E2E2E2E2E2E2E2E2E2E2F5E2E2E2F5F5EFF5E2E2E2F5E2E2E2E2E2E2E2E2E2E2E2E2E2E2E2E2F5E2E2E2E2E2E2E2E2E2E2E2E2E2E2E2E2E2E2E2E2E2E2E2E2E2E2E2E2E2DCE2E2E2E2E2E2E2E2E2E2E2E2
310
E2E2E2E2E2E2E2E2E2E2E2E2E2E2E2E2E2E2E2E2E2E2E2E227BEE2E2E2E2E2E2E2E2E2E2E2E2E2E2E2E2E2E2E2E2E2E2E2E2E2E2E2E2E2E2E2E2E2E2E2E2DCE2E2E2E2E2E2E2E2E2E2E2E2E2E2E2E2E2E2E2E2E2E2E2E2E2E2E2E2E2F5E2E2E2E2E2E2E2E2E2E2E2E2E2E2E2E2F5E2E2E2F5F5EFF5E2E2E2F5E2E2E2E2E2E2
310
E2E2E2E2E2E2E2E2E2E2F5E2E2E2E2E2E2E2E2E2E2E2E2E2E2E2E2E2E2E2E2E2E2E2E2E2E2E2E2E2DCE2E2E2E2E2E2E2E2E2E2E2E2E2E2E2E2E2E2E2E2E2E2E2E2E2E2E2E2E2E2E2E2E2E2E2E227BEE2E2E2E2E2E2E2E2E2E2E2E2E2E2E2E2E2E2E2E2E2E2E2E2E2E2E2E2E2E2E2E2E2E2E2E2DCE2E2E2E2E2E2E2E2E2E2E2
310
E2E2E2E2E2E2E2E2E2E2E2E2E2E2E2E2E2E2F5E2E2E2E2E2E2E2E2E2E2E2E2E2E2E2E2F5E2E2E2F5F5EFF5E2E2E2F5E2E2E2E2E2E2E2E2E2E2E2E2E2E2E2E2F5E2E2E2E2E2E2E2E2E2E2E2E2E2E2E2E2E2E2E2E2E2E2E2E2E2E2E2E2E2DCE2E2E2E2E2E2E2E2E2E2E2E2E2E2E2E2E2E2E2E2E2E2E2E2E2E2E2E2E2E2E2E2E2
310
E2E2E227BEE2E2E2E2E2E2E2E2E2E2E2E2E2E2E2E2E2E2E2E2E2E2E2E2E2E2E2E2E2E2E2E2E2E2E2E2DCE2E2E2E2E2E2E2E2E2E2E2E2E2E2E2E2E2E2E2E2E2E2E2E2E2E2E2E2E2F5E2E2E2E2E2E2E2E2E2E2E2E2E2E2E2E2F5E2E2E2F5F5EFF5E2E2E2F5E2E2E2E2E2E2E2E2E2E2E2E2E2E2E2E2F5E2E2E2E2E2E2E2E2E2E2
310
E2E2E2E2E2E2E2E2E2E2E2E2E2E2E2E2E2E2E2DCE2E2E2E2E2E2E2E2E2E2E2E2E2E2E2E2E2E2E2E2E2E2E2E2E2E2E2E2E2E2E2E2E2E2E2E227BEE2E2E2E2E2E2E2E2E2E2E2E2E2E2E2E2E2E2E2E2E2E2E2E2E2E2E2E2E2E2E2E2E2E2E2E2DCE2E2E2E2E2E2E2E2E2E2E2E2E2E2E2E2E2E2E2E2E2E2E2E2E2E2E2E2E2F5E2E2
310
E2E2E2E2E2E2E2E2E2E2E2E2E2E2F5E2E2E2F5F5EFF5E2E2E2F5E2E2E2E2E2E2E2E2E2E2E2E2E2E2E2E2F5E2E2E2E2E2E2E2E2E2E2E2E2E2E2E2E2E2E2E2E2E2E2E2E2E2E2E2E2E2DCE2E2E2E2E2E2E2E2E2E2E2E2E2E2E2E2E2E2E2E2E2E2E2E2E2E2E2E2E2E2E2E2E2E2E2E227BEE2E2E2E2E2E2E2E2E2E2E2E2E2E2E2E2
310
E2E2E2E2E2E2E2E2E2E2E2E2E2E2E2E2E2E2E2E2DCE2E2E2E2E2E2E2E2E2E2E2E2E2E2E2E2E2E2E2E2E2E2E2E2E2E2E2E2E2F5E2E2E2E2E2E2E2E2E2E2E2E2E2E2E2E2F5E2E2E2F5F5EFF5E2E2E2F5E2E2E2E2E2E2E2E2E2E2E2E2E2E2E2E2F5E2E2E2E2E2E2E2E2E2E2E2E2E2E2E2E2E2E2E2E2E2E2E2E2E2E2E2E2E2DCE2
310
E2E2E2E2E2E2E2E2E2E2E2E2E2E2E2E2E2E2E2E2E2E2E2E2E2E2E2E2E2E2E2E2E2E2E227BEE2E2E2E2E2E2E2E2E2E2E2E2E2E2E2E2E2E2E2E2E2E2E2E2E2E2E2E2E2E2E2E2E2E2E2E2DCE2E2E2E2E2E2E2E2E2E2E2E2E2E2E2E2E2E2E2E2E2E2E2E2E2E2E2E2E2F5E2E2E2E2E2E2E2E2E2E2E2E2E2E2E2E2F5E2E2E2F5F5EF
310
F5E2E2E2F5E2E2E2E2E2E2E2E2E2E2E2E2E2E2E2E2F5E2E2E2E2E2E2E2E2E2E2E2E2E2E2E2E2E2E2E2E2E2E2E2E2E2E2E2E2E2DCE2E2E2E2E2E2E2E2E2E2E2E2E2E2E2E2E2E2E2E2E2E2E2E2E2E2E2E2E2E2E2E2E2E2E2E227BEE2E2E2E2E2E2E2E2E2E2E2E2E2E2E2E2E2E2E2E2E2E2E2E2E2E2E2E2E2E2E2E2E2E2E2E2DC
310
E2E2E2E2E2E2E2E2E2E2E2E2E2E2E2E2E2E2E2E2E2E2E2E2E2E2E2E2E2F5E2E2E2E2E2E2E2E2E2E2E2E2E2E2E2E2F5E2E2E2F5F5EFF5E2E2E2F5E2E2E2E2E2E2E2E2E2E2E2E2E2E2E2E2F5E2E2E2E2E2E2E2E2E2E2E2E2E2E2E2E2E2E2E2E2E2E2E2E2E2E2E2E2E2DCE2E2E2E2E2E2E2E2E2E2E2E2E2E2E2E2E2E2E2E2E2E2
310
E2E2E2E2E2E2E2E2E2E2E2E2E2E227BEE2E2E2E2E2E2E2E2E2E2E2E2E2E2E2E2E2E2E2E2E2E2E2E2E2E2E2E2E2E2E2E2E2E2E2E2DCE2E2E2E2E2E2E2E2E2E2E2E2E2E2E2E2E2E2E2E2E2E2E2E2E2E2E2E2E2F5E2E2E2E2E2E2E2E2E2E2E2E2E2E2E2E2F5E2E2E2F5F5EFF5E2E2E2F5E2E2E2E2E2E2E2E2E2E2E2E2E2E2E2E2
310
F5E2E2E2E2E2E2E2E2E2E2E2E2E2E2E2E2E2E2E2E2E2E2E2E2E2E2E2E2E2DCE2E2E2E2E2E2E2E2E2E2E2E2E2E2E2E2E2E2E2E2E2E2E2E2E2E2E2E2E2E2E2E2E2E2E2E227BEE2E2E2E2E2E2E2E2E2E2E2E2E2E2E2E2E2E2E2E2E2E2E2E2E2E2E2E2E2E2E2E2E2E2E2E2DCE2E2E2E2E2E2E2E2E2E2E2E2E2E2E2E2E2E2E2E2E2
310
E2E2E2E2E2E2E2E2F5E2E2E2E2E2E2E2E2E2E2E2E2E2E2E2E2F5E2E2E2F5F5EFF5E2E2E2F5E2E2E2E2E2E2E2E2E2E2E2E2E2E2E2E2F5E2E2E2E2E2E2E2E2E2E2E2E2E2E2E2E2E2E2E2E2E2E2E2E2E2E2E2E2E2DCE2E2E2E2E2E2E2E2E2E2E2E2E2E2E2E2E2E2E2E2E2E2E2E2E2E2E2E2E2E2E2E2E2E2E2E227BEE2E2E2E2E2
310
E2E2E2E2E2E2E2E2E2E2E2E2E2E2E2E2E2E2E2E2E2E2E2E2E2E2E2E2E2E2E2DCE2E2E2E2E2E2E2E2E2E2E2E2E2E2E2E2E2E2E2E2E2E2E2E2E2E2E2E2E2F5E2E2E2E2E2E2E2E2E2E2E2E2E2E2E2E2F5E2E2E2F5F5EFF5E2E2E2F5E2E2E2E2E2E2E2E2E2E2E2E2E2E2E2E2F5E2E2E2E2E2E2E2E2E2E2E2E2E2E2E2E2E2E2E2E2
310
E2E2E2E2E2E2E2E2E2DCE2E2E2E2E2E2E2E2E2E2E2E2E2E2E2E2E2E2E2E2E2E2E2E2E2E2E2E2E2E2E2E2E2E2E2E227BEE2E2E2E2E2E2E2E2E2E2E2E2E2E2E2E2E2E2E2E2E2E2E2E2E2E2E2E2E2E2E2E2E2E2E2E2DCE2E2E2E2E2E2E2E2E2E2E2E2E2E2E2E2E2E2E2E2E2E2E2E2E2E2E2E2E2F5E2E2E2E2E2E2E2E2E2E2E2E2
310
E2E2E2E2F5E2E2E2F5F5EFF5E2E2E2E2E2E2E2E2E2E2E2E2E2E2E2E2E2E2E2E2F5E2E2E2E2E2E2E2E2E2E2E2E2E2E2E2E2E2E2E2E2E2E2E2E2E2E2E2E2E2DCE2E2E2E2E2E2E2E2E2E2E2E2E2E2E2E2E2E2E2E2E2E2E2E2E2E2E2E2E2E2E2E2E2E2E2E227BEE2E2E2E2E2E2E2E2E2E2E2E2E2E2E2E2E2E2E2E2E2E2E2E2E2E2
310
E2E2E2E2E2E2E2E2E2E2DCE2E2E2E2E2E2E2E2E2E2E2E2E2E2E2E2E2E2E2E2E2E2E2E2E2E2E2E2E2F5E2E2E2E2E2E2E2E2E2E2E2E2E2E2E2E2E2E2E2E2F5F5EFF5E2E2E2E2E2E2E2E2E2E2E2E2E2E2E2E2E2E2E2E2F5E2E2E2E2E2E2E2E2E2E2E2E2E2E2E2E2E2E2E2E2E2E2E2E2E2E2E2E2E2DCE2E2E2E2E2E2E2E2E2E2E2
310
E2E2E2E2E2E2E2E2E2E2E2E2E2E2E2E2E2E2E2E2E2E2E2E2E227BEE2E2E2E2E2E2E2E2E2E2E2E2E2E2E2E2E2E2E2E2E2E2E2E2E2E2E2E2E2E2E2E2E2E2E2E2DCE2E2E2E2E2E2E2E2E2E2E2E2E2E2E2E2E2E2E2E2E2E2E2E2E2E2E2E2E2F5E2E2E2E2E2E2E2E2E2E2E2E2E2E2E2E2E2E2E2E2F5F5EFF5E2E2E2E2E2E2E2E2E2
310
E2E2E2E2E2E2E2E2E2E2E2F5E2E2E2E2E2E2E2E2E2E2E2E2E2E2E2E2E2E2E2E2E2E2E2E2E2E2E2E2E2DCE2E2E2E2E2E2E2E2E2E2E2E2E2E2E2E2E2E2E2E2E2E2E2E2E2E2E2E2E2E2E2E2E2E2E2E2E2BEE2E2E2E2E2E2E2E2E2E2E2E2E2E2E2E2E2E2E2E2E2E2E2E2E2E2E2E2E2E2E2E2E2E2E2E2DCE2E2E2E2E2E2E2E2E2E2
310
E2E2E2E2E2E2E2E2E2E2E2E2E2E2E2E2E2E2E2F5E2E2E2E2E2E2E2E2E2E2E2E2E2E2E2E2E2E2E2E2F5F5EFF5E2E2E2E2E2E2E2E2E2E2E2E2E2E2E2E2E2E2E2E2F5E2E2E2E2E2E2E2E2E2E2E2E2E2E2E2E2E2E2E2E2E2E2E2E2E2E2E2E2E2DCE2E2E2E2E2E2E2E2E2E2E2E2E2E2E2E2E2E2E2E2E2E2E2E2E2E2E2E2E2E2E2E2
310
E2E2E2E2E2BEE2E2E2E2E2E2E2E2E2E2E2E2E2E2E2E2E2E2E2E2E2E2E2E2E2E2E2E2E2E2E2E2E2E2E2E2DCE2E2E2E2E2E2E2E2E2E2E2E2E2E2E2E2E2E2E2E2E2E2E2E2E2E2E2E2E2F5E2E2E2E2E2E2E2E2E2E2E2E2E2E2E2E2E2E2E2E2F5F5EFF5E2E2E2E2E2E2E2E2E2E2E2E2E2E2E2E2E2E2E2E2F5E2E2E2E2E2E2E2E2E2
310
E2E2E2E2E2E2E2E2E2E2E2E2E2E2E2E2E2E2E2E2DCE2E2E2E2E2E2E2E2E2E2E2E2E2E2E2E2E2E2E2E2E2E2E2E2E2E2E2E2E2E2E2E2E2E2E2E2E2BEE2E2E2E2E2E2E2E2E2E2E2E2E2E2E2E2E2E2E2E2E2E2E2E2E2E2E2E2E2E2E2E2E2E2E2E2DCE2E2E2E2E2E2E2E2E2E2E2E2E2E2E2E2E2E2E2E2E2E2E2E2E2E2E2E2E2F5E2
310
E2E2E2E2E2E2E2E2E2E2E2E2E2E2E2E2E2E2E2F5F5EFF5E2E2E2E2E2E2E2E2E2E2E2E2E2E2E2E2E2E2E2E2F5E2E2E2E2E2E2E2E2E2E2E2E2E2E2E2E2E2E2E2E2E2E2E2E2E2E2E2E2E2DCE2E2E2E2E2E2E2E2E2E2E2E2E2E2E2E2E2E2E2E2E2E2E2E2E2E2E2E2E2E2E2E2E2E2E2E2E2BEE2E2E2E2E2E2E2E2E2E2E2E2E2E2E2
310
E2E2E2E2E2E2E2E2E2E2E2E2E2E2E2E2E2E2E2E2E2DCE2E2E2E2E2E2E2E2E2E2E2E2E2E2E2E2E2E2E2E2E2E2E2E2E2E2E2E2E2F5E2E2E2E2E2E2E2E2E2E2E2E2E2E2E2E2E2E2E2E2F5F5EFF5E2E2E2E2E2E2E2E2E2E2E2E2E2E2E2E2E2E2E2E2F5E2E2E2E2E2E2E2E2E2E2E2E2E2E2E2E2E2E2E2E2E2E2E2E2E2E2E2E2E2DC
310
E2E2E2E2E2E2E2E2E2E2E2E2E2E2E2E2E2E2E2E2E2E2E2E2E2E2E2E2E2E2E2E2E2E2E2E2E2BEE2E2E2E2E2E2E2E2E2E2E2E2E2E2E2E2E2E2E2E2E2E2E2E2E2E2E2E2E2E2E2E2E2E2E2E2DCE2E2E2E2E2E2E2E2E2E2E2E2E2E2E2E2E2E2E2E2E2E2E2E2E2E2E2E2E2F5E2E2E2E2E2E2E2E2E2E2E2E2E2E2E2E2E2E2E2E2F5F5
310
EFF5E2E2E2E2E2E2E2E2E2E2E2E2E2E2E2E2E2E2E2E2F5E2E2E2E2E2E2E2E2E2E2E2E2E2E2E2E2E2E2E2E2E2E2E2E2E2E2E2E2E2DCE2E2E2E2E2E2E2E2E2E2E2E2E2E2E2E2E2E2E2E2E2E2E2E2E2E2E2E2E2E2E2E2E2E2E2E2E2BEE2E2E2E2E2E2E2E2E2E2E2E2E2E2E2E2E2E2E2E2E2E2E2E2E2E2E2E2E2E2E2E2E2E2E2E2
310
DCE2E2E2E2E2E2E2E2E2E2E2E2E2E2E2E2E2E2E2E2E2E2E2E2E2E2E2E2E2F5E2E2E2E2E2E2E2E2E2E2E2E2E2E2E2E2E2E2E2E2F5F5EFF5E2E2E2E2E2E2E2E2E2E2E2E2E2E2E2E2E2E2E2E2F5E2E2E2E2E2E2E2E2E2E2E2E2E2E2E2E2E2E2E2E2E2E2E2E2E2E2E2E2E2DCE2E2E2E2E2E2E2E2E2E2E2E2E2E2E2E2E2E2E2E2E2
310
E2E2E2E2E2E2E2E2E2E2E2E2E2E2E2E2BEE2E2E2E2E2E2E2E2E2E2E2E2E2E2E2E2E2E2E2E2E2E2E2E2E2E2E2E2E2E2E2E2E2E2E2E2DCE2E2E2E2E2E2E2E2E2E2E2E2E2E2E2E2E2E2E2E2E2E2E2E2E2E2E2E2E2F5E2E2E2E2E2E2E2E2E2E2E2E2E2E2E2E2E2E2E2E2F5F5EFF5E2E2E2E2E2E2E2E2E2E2E2E2E2E2E2E2E2E2E2
310
E2F5E2E2E2E2E2E2E2E2E2E2E2E2E2E2E2E2E2E2E2E2E2E2E2E2E2E2E2E2E2DCE2E2E2E2E2E2E2E2E2E2E2E2E2E2E2E2E2E2E2E2E2C3C3C3C3C3C3E2E2E2E2E2E2E2E2E2E2BEE2E2E2E2E2E2E2E2E2E2E2C3C3C3C3C3C3E2E2E2E2E2E2E2E2E2E2E2E2E2E2E2E2E2E2E2DCE2E2E2E2E2E2E2E2E2E2E2E2E2E2E2E2E2E2E2E2
310
E2E2E2E2E2E2E2E2E2F5E2E2E2E2E2E2E2E2E2E2E2E2E2E2E2E2E2E2E2E2F5F5EFF5E2E2E2F5E2E2E2E2E2E2E2E2E2E2E2E2E2E2E2E2F5E2E2E2E2E2E2E2E2E2E2E2E2E2E2E2E2E2E2E2E2E2E2E2E2E2E2E2E2E2DCE2E2E2E2E2E2E2E2E2E2E2BEE2BEE2E2E2E2E2E2E2C3C3C3C3C3C3E2E2E2E2E2E2E2E2E2E2BEE2E2E2E2
310
E2E2E2E2E2E2E2C3C3C3C3C3C3E2E2E2E2E2E2E2E2BEE2BEE2E2E2E2E2E2E2E2DCE2E2E2E2E2E2E2E2E2E2E2E2E2E2E2E2E2E2E2E2E2E2E2E2E2E2E2E2E2F5E2E2E2E2E2E2E2E2E2E2E2E2E2E2E2E2F5E2E2E2F5F5EFF5E2E2E2F5E2E2E2E2E2E2E2E2E2E2E2E2E2E2E2E2F5E2E2E2E2E2E2E2E2E2E2E2E2E2E2E2E2E2E2E2
310
E2E2E2E2E2E2E2E2E2E2DCE2E2E2E2E2E2E2E2E2E2E2BEBEBEE2E2E2E2E2E2E2F5BEF5F5F5BEE2E2E2E2E2E2E2E2E2E2BEE2E2E2E2E2E2E2E2E2E2E2F5F5F5F5F5F5E2E2E2E2E2E2E227BEBEBEE2E2E2E2E2E2E2E2DCE2E2E2E2E2E2E2E2E2E2E2E2E2E2E2E2E2E2E2E2E2E2E2E2E2E2E2E2E2F5E2E2E2E2E2E2E2E2E2E2E2
310
E2E2E2E2E2F5E2E2E2F5F5EFF5E2E2E2F5E2E2E2E2E2E2E2E2E2E2E2E2E2E2E2E2F5E2E2E2E2E2E2E2E2E2E2E2E2E2E2E2E2E2E2E2E2E2E2E2E2E2E2E2E2E2DCE2E2E2E2E2E2E2E2E2E2E2BE2727E2E2E2E2E2E2E2F5E2E2E2F5F5E2E2E2E2E2E2E2E2E2E2BEE2E2E2E2E2E2E2E2E2E2E2F5E2E2E2F5F5E2E2E2E2E2E2E227
310
27E2BEE2E2E2E2E2E2E2E2DCE2E2E2E2E2E2E2E2E2E2E2E2E2E2E2E2E2E2E2E2E2E2E2E2E2E2E2E2E2F5E2E2E2E2E2E2E2E2E2E2E2E2E2E2E2E2F5E2E2E2F5F5EFF5E2E2E2F5E2E2E2E2E2E2E2E2E2E2E2E2E2E2E2E2F5E2E2E2E2E2E2E2E2E2E2E2E2E2E2E2E2E2E2E2E2E2E2E2E2E2E2E2E2E2DCE2E2E2E2E2E2E2E2E2E2
310
E2BE2727E2E2E2E2E2C3C3F5E2E2E2F5F5E2E2E2E2E2E2E2E2E2E2BEE2E2E2E2E2E2E2E2E2E2E2F5E2E2E2F5F5C3E2E2E2E2E2E22727E2BEE2E2E2E2E2E2E2E2DCE2E2E2E2E2E2E2E2E2E2E2E2E2E2E2E2E2E2E2E2E2E2E2E2E2E2E2E2E2F5E2E2E2E2E2E2E2E2E2E2E2E2E2E2E2E2F5E2E2E2F5F5EFF5E2E2E2F5E2E2E2E2
310
E2E2E2E2E2E2E2E2E2E2E2E2F5E2E2E2E2E2E2E2E2E2E2E2E2E2E2E2E2E2E2E2E2E2E2E2E2E2E2E2E2E2DCE2E2E2E2E2E2E2E2E2E2E2BE27BEC3C3C3F5BEF5F5F5E2E2E2F5F5E2E2E2E2E2E2E2E2E2E2BEE2E2E2E2E2E2E2E2E2E2E2F5E2E2E2F5F5F5F5F5F5C3C3E227BEE2BEE2E2E2E2E2E2E2E2DCE2E2E2E2E2E2E2E2E2
310
E2E2E2E2E2E2E2E2E2E2E2E2E2E2E2E2E2E2E2E2F5E2E2E2E2E2E2E2E2E2E2E2E2E2E2E2E2F5E2E2E2F5F5EFF5E2E2E2F5E2E2E2E2E2E2E2E2E2E2E2E2E2E2E2E2F5E2E2E2E2E2E2E2E2E2E2E2E2E2E2E2E2E2E2E2E2E2E2E2E2E2E2E2E2E2DCE2E2E2E2E2E2E2E2E2E227272727C3E2E2F5E2E2E2E2E2E2F5F5BEE2E2E2E2
310
E2E2E2E2E2E2BEE2E2E2E2E2E2E2E2E2E2E2F5F5F5E2E2E2E2E2E2F5E2C3E2272727BEE2E2E2E2E2E2E2E2DCE2E2E2E2E2E2E2E2E2E2E2E2E2E2E2E2E2E2E2E2E2E2E2E2E2E2E2E2E2F5E2E2E2E2E2E2E2E2E2E2E2E2E2E2E2E2F5E2E2E2F5F5EFF5E2E2E2F5E2E2E2E2E2E2E2E2E2E2E2E2E2E2E2E2F5E2E2E2E2E2E2E2E2
310
E2E2E2E2E2E2E2E2E2E2E2E2E2E2E2E2E2E2E2E2E2DCE2E2E2E2E2E2E2E2E2E227272727C3F5F5BEE2E2E2E2E2E2F5E2E2E2E2E2E2E2E2E2E2E2E2BEE2E2E2E2E2E2E2E2E2E2E2E2E2F5E2E2E2E2E2E2F5F5C3E2272727BEE2E2E2E2E2E2E2E2DCE2E2E2E2E2E2E2E2E2E2E2E2E2E2E2E2E2E2E2E2E2E2E2E2E2E2E2E2E2F5
310
E2E2E2E2E2E2E2E2E2E2E2E2E2E2E2E2F5E2E2E2F5F5EFF5E2E2E2F5E2E2E2E2E2E2E2E2E2E2E2E2E2E2E2E2F5E2E2E2E2E2E2E2E2E2E2E2E2E2E2E2E2E2E2E2E2E2E2E2E2E2E2E2E2E2DCE2E2E2E2E2E2E2E2E2E22727E2BEE2C3F5E2E2E2E2E2E2E2F5E2E2E2E2E2E2E2E2E2E2E2E2BEE2E2E2E2E2E2E2E2E2E2E2E2E2F5
310
E2E2E2E2E2E2E2C3C3E2E2BE27BEE2E2E2E2E2E2E2E2DCE2E2E2E2E2E2E2E2E2E2E2E2E2E2E2E2E2E2E2E2E2E2E2E2E2E2E2E2E2F5E2E2E2E2E2E2E2E2E2E2E2E2E2E2E2E2F5E2E2E2F5F5EFF5E2E2E2F5E2E2E2E2E2E2E2E2E2E2E2E2E2E2E2E2F5E2E2E2E2E2E2E2E2E2E2E2E2E2E2E2E2E2E2E2E2E2E2E2E2E2E2E2E2E2
310
DCE2E2E2E2E2E2E2E2E2E2E2272727E2F5F5E2E2E2E2E2E2E2F5E2E2E2E2E2E2E2E2E2E2E2E2BEE2E2E2E2E2E2E2E2E2E2E2E2E2F5E2E2E2E2E2E2E2F5E2E2272727BEE2E2E2E2E2E2E2E2DCE2E2E2E2E2E2E2E2E2E2E2E2E2E2E2E2E2E2E2E2E2E2E2E2E2E2E2E2E2F5E2E2E2E2E2E2E2E2E2E2E2E2E2E2E2E2F5E2E2E2F5
310
F5EFF5E2E2E2F5E2E2E2E2E2E2E2E2E2E2E2E2E2E2E2E2F5E2E2E2E2E2E2E2E2E2E2E2E2E2E2E2E2E2E2E2E2E2E2E2E2E2E2E2E2E2DCE2E2E2E2E2E2E2E2E2E2E2BE2727E2F5F5E2E2E2E2E2E2E2F5E2E2E2E2E2E2E2E2E2E2E2E2BEE2E2E2E2E2E2E2E2E2E2E2E2E2F5E2E2E2E2E2E2E2F5E2E22727E2BEE2E2E2E2E2E2E2
310
E2DCE2E2E2E2E2E2E2E2E2E2E2E2E2E2E2E2E2E2E2E2E2E2E2E2E2E2E2E2E2F5E2E2E2E2E2E2E2E2E2E2E2E2E2E2E2E2F5E2E2E2F5F5EFF5E2E2E2F5E2E2E2E2E2E2E2E2E2E2E2E2E2E2E2E2F5E2E2E2E2E2E2E2E2E2E2E2E2E2E2E2E2E2E2E2E2E2E2E2E2E2E2E2E2E2DCE2E2E2E2E2E2E2E2E2E2E2BE2727E2F5F5E2E2E2
310
E2E2E2E2F5E2E2E2E2E2E2E2E2E2E2E2E2BEE2E2E2E2E2E2E2E2E2E2E2E2E2F5E2E2E2E2E2E2E2F5E2E22727E2BEE2E2E2E2E2E2E2E2DCE2E2E2E2E2E2E2E2E2E2E2E2E2E2E2E2E2E2E2E2E2E2E2E2E2E2E2E2E2F5E2E2E2E2E2E2E2E2E2E2E2E2E2E2E2E2F5E2E2E2F5F5EFF5E2E2E2F5E2E2E2E2E2E2E2E2E2E2E2E2E2E2
310
E2E2F5E2E2E2E2E2E2E2E2E2E2E2E2E2E2E2E2E2E2E2E2E2E2E2E2E2E2E2E2E2DCE2E2E2E2E2E2E2E2E2E2E2BEE2BEE2F5F5E2E2F5F5F5F5F5BEE2E2E2E2E2E2E2E2E2E2E2E2BEE2E2E2E2E2E2E2E2E2E2E2E2E2F5F5F5F5F5F5E2E2F5E2E2E2BEE2BEE2E2E2E2E2E2E2E2DCE2E2E2E2E2E2E2E2E2E2E2E2E2E2E2E2E2E2E2
310
E2E2E2E2E2E2E2E2E2E2F5E2E2E2E2E2E2E2E2E2E2E2E2E2E2E2E2F5E2E2E2F5F5EFF5E2E2E2F5E2E2E2E2E2E2E2E2E2E2E2E2E2E2E2E2F5E2E2E2E2E2E2E2E2E2E2E2E2E2E2E2E2E2E2E2E2E2E2E2E2E2E2E2E2E2DCE2E2E2E2E2E2E2E2E2E2E2BEBEBEE2BEF5BEF5BEE2E2E2E2C3E2E2E2E2E2E2E2E2E2E2E2E2BEE2E2E2
310
E2E2E2E2E2E2E2E2E2E2C3E2E2E2F5F5F5F5F5BEE2E2BEBEBEE2E2E2E2E2E2E2E2DCE2E2E2E2E2E2E2E2E2E2E2E2E2E2E2E2E2E2E2E2E2E2E2E2E2E2E2E2E2F5E2E2E2E2E2E2E2E2E2E2E2E2E2E2E2E2F5E2E2E2F5F5EFF5E2E2E2F5E2E2E2E2E2E2E2E2E2E2E2E2E2E2E2E2F5E2E2E2E2E2E2E2E2E2E2E2E2E2E2E2E2E2E2
310
E2E2E2E2E2E2E2E2E2E2E2DCE2E2E2E2E2E2E2E2E2E2E2E2E2E2E2E2C3C3E2E2E2E2E2E2C3E2E2E2E2E2E2E2E2E2E2E2E2BEE2E2E2E2E2E2E2E2E2E2E2E2E2C3E2E2E2E2E2E2C3C3E2E2E2E2E2E2E2E2E2E2E2E2E2E2DCE2E2E2E2E2E2E2E2E2E2E2E2E2E2E2E2E2E2E2E2E2E2E2E2E2E2E2E2E2F5E2E2E2E2E2E2E2E2E2E2
310
E2E2E2E2E2E2F5E2E2E2F5F5EFF5E2E2E2F5E2E2E2E2E2E2E2E2E2E2E2E2E2E2E2E2F5E2E2E2E2E2E2E2E2E2E2E2E2E2E2E2E2E2E2E2E2E2E2E2E2E2E2E2E2E2DCE2E2E2E2E2E2E2E2E2E2E2E2E2E2E2E2C3C3C3C3C3C3C3C3C3E2E2E2E2E2E2E2E2E2E2E2E2BEE2E2E2E2E2E2E2E2E2E2E2E2E2C3C3C3C3C3C3C3C3C3E2E2
310
E2E2E2E2E2E2E2E2E2E2E2E2DCE2E2E2E2E2E2E2E2E2E2E2E2E2E2E2E2E2E2E2E2E2E2E2E2E2E2E2E2E2F5E2E2E2E2E2E2E2E2E2E2E2E2E2E2E2E2F5E2E2E2F5F5EFF5E2E2E2F5E2E2E2E2E2E2E2E2E2E2E2E2E2E2E2E2F5E2E2E2E2E2E2E2E2E2E2E2E2E2E2E2E2E2E2E2E2E2E2E2E2E2E2E2E2E2DCE2E2E2E2E2E2E2E2E2
310
E2E2E2E2E2E2E2E2E2E2E2E2E2E2E2E2E2E2E2E2E2E2E2E2E2E2E2E2BEE2E2E2E2E2E2E2E2E2E2E2E2E2E2E2E2E2E2E2E2E2E2E2E2E2E2E2E2E2E2E2E2E2E2E2E2DCE2E2E2E2E2E2E2E2E2E2E2E2E2E2E2E2E2E2E2E2E2E2E2E2E2E2E2E2E2F5E2E2E2E2E2E2E2E2E2E2E2E2E2E2E2E2F5E2E2E2F5F5EFF5E2E2E2E2E2E2E2
310
E2E2E2E2E2E2E2E2E2E2E2E2E2F5E2E2E2E2E2E2E2E2E2E2E2E2E2E2E2E2E2E2E2E2E2E2E2E2E2E2E2E2E2DCE2E2E2E2E2E2E2E2E2E2E2E2E2E2E2BE272727BEBE2727272727BEE2E2E2E2E2E2E2E2E2E2BEE2E2E2E2E2E2E2E2E2E2BEBE2727272727BEBE2727BEE2E2E2E2E2E2E2E2E2E2E2E2E2E2DCE2E2E2E2E2E2E2E2
310
E2E2E2E2E2E2E2E2E2E2E2E2E2E2E2E2E2E2E2E2E2F5E2E2E2E2E2E2E2E2E2E2E2E2E2E2E2E2E2E2E2E2F5F5EFF5E2E2E2E2E2E2E2E2E2E2E2E2E2E2E2E2E2E2E2E2F5E2E2E2E2E2E2E2E2E2E2E2E2E2E2E2E2E2E2E2E2E2E2E2E2E2E2E2E2E2DCE2E2E2E2E2E2E2E2E2E2E2E2E2E2E2BEBEBEBEBEBEBEBEBEBEBEBEE2E2E2
310
E2E2E2E2E2E2E2BEE2E2E2E2E2E2E2E2E2E2E2BEBEBEBEBEBEBEBEBEBEBEE2E2E2E2E2E2E2E2E2E2E2E2E2E2DCE2E2E2E2E2E2E2E2E2E2E2E2E2E2E2E2E2E2E2E2E2E2E2E2E2E2E2E2E2F5E2E2E2E2E2E2E2E2E2E2E2E2E2E2E2E2E2E2E2E2F5F5EFF5E2E2E2E2E2E2E2E2E2E2E2E2E2E2E2E2E2E2E2E2F5E2E2E2E2E2E2E2
310
E2E2E2E2E2E2E2E2E2E2E2E2E2E2E2E2E2E2E2E2E2E2DCE2E2E2E2E2E2E2E2E2E2E2E2E2E2E2BEBEE2E227272727E2E2E2BEE2E2E2E2E2E2E2E2E2E2BEE2E2E2E2E2E2E2E2E2E2E2BEE2E2E2272727E2E2E2BEE2E2E2E2E2E2E2E2E2E2E2E2E2E2DCE2E2E2E2E2E2E2E2E2E2E2E2E2E2E2E2E2E2E2E2E2E2E2E2E2E2E2E2E2
310
F5E2E2E2E2E2E2E2E2E2E2E2E2E2E2E2E2E2E2E2E2F5F5EFF5E2E2E2E2E2E2E2E2E2E2E2E2E2E2E2E2E2E2E2E2F5E2E2E2E2E2E2E2E2E2E2E2E2E2E2E2E2E2E2E2E2E2E2E2E2E2E2E2E2E2DCE2E2E2E2E2E2E2E2E2E2E2E2E2E2E2E2E2E2E2E2E2E2E2E2E2E2E2E2E2E2E2E2E2E2E2E2E2BEE2E2E2E2E2E2E2E2E2E2E2E2E2
310
E2E2E2E2E2E2E2E2E2E2E2E2E2E2E2E2E2E2E2E2E2E2E2DCE2E2E2E2E2E2E2E2E2E2E2E2E2E2E2E2E2E2E2E2E2E2E2E2E2E2E2E2E2F5E2E2E2E2E2E2E2E2E2E2E2E2E2E2E2E2E2E2E2E2F5F5EFF5E2E2E2E2E2E2E2E2E2E2E2E2E2E2E2E2E2E2E2E2F5E2E2E2E2E2E2E2E2E2E2E2E2E2E2E2E2E2E2E2E2E2E2E2E2E2E2E2E2
310
E2DCE2E2E2E2E2E2E2E2E2E2E2E2E2E2E2E2E2E2E2E2E2E2E2E2E2E2E2E2E2E2E2E2E2E2E2E2E2BEE2E2E2E2E2E2E2E2E2E2E2E2E2E2E2E2E2E2E2E2E2E2E2E2E2E2E2E2E2E2E2E2E2E2E2E2DCE2E2E2E2E2E2E2E2E2E2E2E2E2E2E2E2E2E2E2E2E2E2E2E2E2E2E2E2E2F5E2E2E2E2E2E2E2E2E2E2E2E2E2E2E2E2E2E2E2E2
310
F5F5EFF5E2E2E2E2E2E2E2E2E2E2E2E2E2E2E2E2E2E2E2E2F5E2E2E2E2E2E2E2E2E2E2E2E2E2E2E2E2E2E2E2E2E2E2E2E2E2E2E2E2E2DCE2E2E2E2E2E2E2E2E2E2E2E2E2E2E2E2E2E2E2E2E2E2E2E2E2E2E2E2E2E2E2E2E2E2E2E2E2BEE2E2E2E2E2E2E2E2E2E2E2E2E2E2E2E2E2E2E2E2E2E2E2E2E2E2E2E2E2E2E2E2E2E2
310
E2E2DCE2E2E2E2E2E2E2E2E2E2E2E2E2E2E2E2E2E2E2E2E2E2E2E2E2E2E2E2E2F5E2E2E2E2E2E2E2E2E2E2E2E2E2E2E2E2E2E2E2E2F5F5EFF5E2E2E2E2E2E2E2E2E2E2E2E2E2E2E2E2E2E2E2E2F5E2E2E2E2E2E2E2E2E2E2E2E2E2E2E2E2E2E2E2E2E2E2E2E2E2E2E2E2E2DCE2E2E2E2E2E2E2E2E2E2E2E2E2E2E2E2E2E2E2
310
E2E2E2E2E2E2E2E2E2E2E2E2E2E2E2E2E2E2BEE2E2E2E2E2E2E2E2E2E2E2E2E2E2E2E2E2E2E2E2E2E2E2E2E2E2E2E2E2E2E2E2E2E2E2E2DCE2E2E2E2E2E2E2E2E2E2E2E2E2E2E2E2E2E2E2E2E2E2E2E2E2E2E2E2E2F5E2E2E2E2E2E2E2E2E2E2E2E2E2E2E2E2E2E2E2E2F5F5EFF5E2E2E2E2E2E2E2E2E2E2E2E2E2E2E2E2E2
310
E2E2E2F5E2E2E2E2E2E2E2E2E2E2E2E2E2E2E2E2E2E2E2E2E2E2E2E2E2E2E2E2E2DCE2E2E2E2E2E2E2E2E2E2E2E2E2E2E2E2E2E2E2E2E2E2E2E2E2E2E2E2E2E2E2E2E2E2E2E2E2E2E2E2E2E2E2E2E2E2E2E2E2E2E2E2E2E2E2E2E2E2E2E2E2E2E2E2E2E2E2E2E2E2E2E2E2E2DCE2E2E2E2E2E2E2E2E2E2E2E2E2E2E2E2E2E2
310
E2E2E2E2E2E2E2E2E2E2E2F5E2E2E2E2E2E2E2E2E2E2E2E2E2E2E2E2E2E2E2E2F5F5EFF5E2E2E2E2E2E2E2E2E2E2E2E2E2E2E2E2E2E2E2E2F5E2E2E2E2E2E2E2E2E2E2E2E2E2E2E2E2E2E2E2E2E2E2E2E2E2E2E2E2E2DCE2E2E2E2E2E2E2E2E2E2E2E2E2E2E2E2E2E2E2E2E2E2E2E2E2E2E2E2E2E2E2E2E2E2E2E2E2E2E2E2
310
E2E2E2E2E2E2E2E2E2E2E2E2E2E2E2E2E2E2E2E2E2E2E2E2E2E2E2E2E2E2E2E2E2E2DCE2E2E2E2E2E2E2E2E2E2E2E2E2E2E2E2E2E2E2E2E2E2E2E2E2E2E2E2E2F5E2E2E2E2E2E2E2E2E2E2E2E2E2E2E2E2E2E2E2E2F5F5EFF5E2E2E2F5E2E2E2E2E2E2E2E2E2E2E2E2E2E2E2E2F5E2E2E2E2E2E2E2E2E2E2E2E2E2E2E2E2E2
310
E2E2E2E2E2E2E2E2E2E2E2E2DCE2E2E2E2E2E2E2E2E2E2E2E2E2E2E2E2E2E2E2E2E2E2E2E2E2E2E2E2E2E2E2E2E2E2E2E2E2E2E2E2E2E2E2E2E2E2E2E2E2E2E2E2E2E2E2E2E2E2E2E2E2E2E2E2E2E2E2E2E2E2E2E2E2E2DCE2E2E2E2E2E2E2E2E2E2E2E2E2E2E2E2E2E2E2E2E2E2E2E2E2E2E2E2E2F5E2E2E2E2E2E2E2E2E2
310
E2E2E2E2E2E2E2F5E2E2E2F5F5EFF5E2E2E2F5E2E2E2E2E2E2E2E2E2E2E2E2E2E2E2E2F5E2E2E2E2E2E2E2E2E2E2E2E2E2E2E2E2E2E2E2E2E2E2E2E2E2E2E2E2E2DCE2E2E2E2E2E2E2E2E2E2E2E2E2E2E2E2E2E2E2E2E2E2E2E2E2E2E2E2E2E2E2E2E2E2E2E2E2E2E2E2E2E2E2E2E2E2E2E2E2E2E2E2E2E2E2E2E2E2E2E2E2
310
E2E2E2E2E2E2E2E2E2E2E2E2E2DCE2E2E2E2E2E2E2E2E2E2E2E2E2E2E2E2E2E2E2E2E2E2E2E2E2E2E2E2E2F5E2E2E2E2E2E2E2E2E2E2E2E2E2E2E2E2F5E2E2E2F5F5EFF5E2E2E2F5E2E2E2E2E2E2E2E2E2E2E2E2E2E2E2E2F5E2E2E2E2E2E2E2E2E2E2E2E2E2E2E2E2E2E2E2E2E2E2E2E2E2E2E2E2E2DCE2E2E2E2E2E2E2E2
310
E2E2E2E2E2E2E2E2E2E2E2E2E2E2E2E2E2E2E2E2E2E2E2E2E2E2E2E2E2E2E2E2E2E2E2E2E2E2E2E2E2E2E2E2E2E2E2E2E2E2E2E2E2E2E2E2E2E2E2E2E2E2E2E2E2E2DCE2E2E2E2E2E2E2E2E2E2E2E2E2E2E2E2E2E2E2E2E2E2E2E2E2E2E2E2E2F5E2E2E2E2E2E2E2E2E2E2E2E2E2E2E2E2F5E2E2E2F5F5EFF5E2E2E2F5E2E2
310
E2E2E2E2E2E2E2E2E2E2E2E2E2E2F5E2E2E2E2E2E2E2E2E2E2E2E2E2E2E2E2E2E2E2E2E2E2E2E2E2E2E2E2E2DCE2E2E2E2E2E2E2E2E2E2E2E2E2E2E2E2E2E2E2E2E2E2E2E2E2E2E2E2E2E2E2E2E2E2E2E2E2E2E2E2E2E2E2E2E2E2E2E2E2E2E2E2E2E2E2E2E2E2E2E2E2E2E2E2E2E2E2E2E2E2E2E2E2E2DCE2E2E2E2E2E2E2
310
E2E2E2E2E2E2E2E2E2E2E2E2E2E2E2E2E2E2E2E2E2E2F5E2E2E2E2E2E2E2E2E2E2E2E2E2E2E2E2F5E2E2E2F5F5EFF5E2E2E2F5E2E2E2E2E2E2E2E2E2E2E2E2E2E2E2E2F5E2E2E2E2E2E2E2E2E2E2E2E2E2E2E2E2E2E2E2E2E2E2E2E2E2E2E2E2E2DCE2E2E2E2E2E2E2E2E2E2E2E2E2E2E2E2E2E2E2E2E2E2E2E2E2E2E2E2E2
310
E2E2E2E2E2E2E2E2E2E2E2E2E2E2E2E2E2E2E2E2E2E2E2E2E2E2E2E2E2E2E2E2E2E2E2E2E2E2E2E2E2E2E2E2E2DCE2E2E2E2E2E2E2E2E2E2E2E2E2E2E2E2E2E2E2E2E2E2E2E2E2E2E2E2E2F5E2E2E2E2E2E2E2E2E2E2E2E2E2E2E2E2F5E2E2E2F5F5EFF5E2E2E2F5E2E2E2E2E2E2E2E2E2E2E2E2E2E2E2E2F5E2E2E2E2E2E2
310
E2E2E2E2E2E2E2E2E2E2E2E2E2E2E2E2E2E2E2E2E2E2E2DCE2E2E2E2E2E2E2E2E2E2E2E2E2E2E2E2E2E2E2E2E2E2E2E2E2E2E2E2E2E2E2E2E2E2E2E2E2E2E2E2E2E2E2E2E2E2E2E2E2E2E2E2E2E2E2E2E2E2E2E2E2E2E2E2E2E2E2E2E2E2E2E2E2E2DCE2E2E2E2E2E2E2E2E2E2E2E2E2E2E2E2E2E2E2E2E2E2E2E2E2E2E2E2
310
E2F5E2E2E2E2E2E2E2E2E2E2E2E2E2E2E2E2F5E2E2E2F5F5EFF5E2E2E2F5E2E2E2E2E2E2E2E2E2E2E2E2E2E2E2E2F5E2E2E2E2E2E2E2E2E2E2E2E2E2E2E2E2E2E2E2E2E2E2E2E2E2E2E2E2E2DCE2E2E2E2E2E2E2E2E2E2E2E2E2E2E2E2E2E2E2E2E2E2E2E2E2E2E2E2E2E2E2E2E2E2E2E2E2E2E2E2E2E2E2E2E2E2E2E2E2E2
310
E2E2E2E2E2E2E2E2E2E2E2E2E2E2E2E2E2E2E2E2E2E2E2E2DCE2E2E2E2E2E2E2E2E2E2E2E2E2E2E2E2E2E2E2E2E2E2E2E2E2E2E2E2E2F5E2E2E2E2E2E2E2E2E2E2E2E2E2E2E2E2F5E2E2E2F5F5EFF5E2E2E2F5E2E2E2E2E2E2E2E2E2E2E2E2E2E2E2E2F5E2E2E2E2E2E2E2E2E2E2E2E2E2E2E2E2E2E2E2E2E2E2E2E2E2E2E2
310
E2E2DCE2E2E2E2E2E2E2E2E2E2E2E2E2E2E2E2E2E2E2E2E2E2E2E2E2E2E2E2E2E2E2E2E2E2E2E2E2E2E2E2E2E2E2E2E2E2E2E2E2E2E2E2E2E2E2E2E2E2E2E2E2E2E2E2E2E2E2E2E2E2E2E2E2E2DCE2E2E2E2E2E2E2E2E2E2E2E2E2E2E2E2E2E2E2E2E2E2E2E2E2E2E2E2E2F5E2E2E2E2E2E2E2E2E2E2E2E2E2E2E2E2F5E2E2
310
E2F5F5EFF5E2E2E2F5E2E2E2E2E2E2E2E2E2E2E2E2E2E2E2E2F5E2E2E2E2E2E2E2E2E2E2E2E2E2E2E2E2E2E2E2E2E2E2E2E2E2E2E2E2E2DCE2E2E2E2E2E2E2E2E2E2E2E2E2E2E2E2E2E2E2E2E2E2E2E2E2E2E2E2E2E2E2E2E2E2E2E2E2E2E2E2E2E2E2E2E2E2E2E2E2E2E2E2E2E2E2E2E2E2E2E2E2E2E2E2E2E2E2E2E2E2E2
310
E2E2E2DCE2E2E2E2E2E2E2E2E2E2E2E2E2E2E2E2E2E2E2E2E2E2E2E2E2E2E2E2E2F5E2E2E2E2E2E2E2E2E2E2E2E2E2E2E2E2F5E2E2E2F5F5EFF5E2E2E2F5E2E2E2E2E2E2E2E2E2E2E2E2E2E2E2E2F5E2E2E2E2E2E2E2E2E2E2E2E2E2E2E2E2E2E2E2E2E2E2E2E2E2E2E2E2E2DCE2E2E2E2E2E2E2E2E2E2E2E2E2E2E2E2E2E2
310
E2E2E2E2E2E2E2E2E2E2E2E2E2E2E2E2E2E2E2E2E2E2E2E2E2E2E2E2E2E2E2E2E2E2E2E2E2E2E2E2E2E2E2E2E2E2E2E2E2E2E2E2E2E2E2E2DCE2E2E2E2E2E2E2E2E2E2E2E2E2E2E2E2E2E2E2E2E2E2E2E2E2E2E2E2E2F5E2E2E2E2E2E2E2E2E2E2E2E2E2E2E2E2F5E2E2E2F5F5EFF5E2E2E2F5E2E2E2E2E2E2E2E2E2E2E2E2
310
E2E2E2E2F5E2E2E2E2E2E2E2E2E2E2E2E2E2E2E2E2E2E2E2E2E2E2E2E2E2E2E2E2E2DCE2E2E2E2E2E2E2E2E2E2E2E2E2E2E2E2E2E2E2E2E2E2E2E2E2E2E2E2E2E2E2E2E2E2E2E2E2E2E2E2E2E2E2E2E2E2E2E2E2E2E2E2E2E2E2E2E2E2E2E2E2E2E2E2E2E2E2E2E2E2E2E2E2E2DCE2E2E2E2E2E2E2E2E2E2E2E2E2E2E2E2E2
310
E2E2E2E2E2E2E2E2E2E2E2E2F5E2E2E2E2E2E2E2E2E2E2E2E2E2E2E2E2F5E2E2E2F5F5EFF5E2E2E2F5E2E2E2E2E2E2E2E2E2E2E2E2E2E2E2E2F5E2E2E2E2E2E2E2E2E2E2E2E2E2E2E2E2E2E2E2E2E2E2E2E2E2E2E2E2E2DCE2E2E2E2E2E2E2E2E2E2E2E2E2E2E2E2E2E2E2E2E2E2E2E2E2E2E2E2E2E2E2E2E2E2E2E2E2E2E2
310
E2E2E2E2E2E2E2E2E2E2E2E2E2E2E2E2E2E2E2E2E2E2E2E2E2E2E2E2E2E2E2E2E2E2E2DCE2E2E2E2E2E2E2E2E2E2E2E2E2E2E2E2E2E2E2E2E2E2E2E2E2E2E2E2E2F5E2E2E2E2E2E2E2E2E2E2E2E2E2E2E2E2F5E2E2E2F5F5EFF5E2E2E2F5E2E2E2E2E2E2E2E2E2E2E2E2E2E2E2E2F5E2E2E2E2E2E2E2E2E2E2E2E2E2E2E2E2
310
E2E2E2E2E2E2E2E2E2E2E2E2E2DCE2E2E2E2E2E2E2E2E2E2E2E2E2E2E2E2E2E2E2E2E2E2E2E2E2E2E2E2E2E2E2E2E2E2E2E2E2E2E2E2E2E2E2E2E2E2E2E2E2E2E2E2E2E2E2E2E2E2E2E2E2E2E2E2E2E2E2E2E2E2E2E2E2E2DCE2E2E2E2E2E2E2E2E2E2E2E2E2E2E2E2E2E2E2E2E2E2E2E2E2E2E2E2E2F5E2E2E2E2E2E2E2E2
310
E2E2E2E2E2E2E2E2F5E2E2E2F5F5EFF5E2E2E2F5E2E2E2E2E2E2E2E2E2E2E2E2E2E2E2E2F5E2E2E2E2E2E2E2E2E2E2E2E2E2E2E2E2E2E2E2E2E2E2E2E2E2E2E2E2E2DCE2E2E2E2E2E2E2E2E2E2E2E2E2E2E2E2E2E2E2E2E2E2E2E2E2E2E2E2E2E2E2E2E2E2E2E2E2E2E2E2E2E2E2E2E2E2E2E2E2E2E2E2E2E2E2E2E2E2E2E2
310
E2E2E2E2E2E2E2E2E2E2E2E2E2E2DCE2E2E2E2E2E2E2E2E2E2E2E2E2E2E2E2E2E2E2E2E2E2E2E2E2E2E2E2E2F5E2E2E2E2E2E2E2E2E2E2E2E2E2E2E2E2F5E2E2E2F5F5EFF5E2E2E2F5E2E2E2E2E2E2E2E2E2E2E2E2E2E2E2E2F5E2E2E2E2E2E2E2E2E2E2E2E2E2E2E2E2E2E2E2E2E2E2E2E2E2E2E2E2E2DCE2E2E2E2E2E2E2
310
E2E2E2E22727272727272727272727272727272727272727272727272727272727272727272727272727272727272727272727E2E2E2E2E2E2E2E2E2E2E2E2E2E2E2E2DCE2E2E2E2E2E2E2E2E2E2E2E2E2E2E2E2E2E2E2E2E2E2E2E2E2E2E2E2E2F5E2E2E2E2E2E2E2E2E2E2E2E2E2E2E2E2F5E2E2E2F5F5EFF5E2E2E2F5E2
310
E2E2E2E2E2E2E2E2E2E2E2E2E2E2E2F5E2E2E2E2E2E2E2E2E2E2E2E2E2E2E2E2E2E2E2E2E2E2E2E2E2E2E2E2E2DCE2E2E2E2E2E2E2E2E2E2E2E2E2E2E2E2E2E2E2E2E2E2E2E2E2E2E2E2E2E2E2E2E2E2E2E2E2E2E2E2E2E2E2E2E2E2E2E2E2E2E2E2E2E2E2E2E2E2E2E2E2E2E2E2E2E2E2E2E2E2E2E2E2E2DCE2E2E2E2E2E2
310
E2E2E2E2E2E2E2E2E2E2E2E2E2E2E2E2E2E2E2E2E2E2E2F5E2E2E2E2E2E2E2E2E2E2E2E2E2E2E2E2F5E2E2E2F5F5EFF5E2E2E2F5E2E2E2E2E2E2E2E2E2E2E2E2E2E2E2E2F5E2E2E2E2E2E2E2E2E2E2E2E2E2E2E2E2E2E2E2E2E2E2E2E2E2E2E2E2E2DCE2E2E2E2E2E2E2E2E2E2272727272727272727272727272727E2E2E2
310
E2E2E2E2E2E2E2E2E2E2E2E2E2E2E2E2E2E2E2E2E2E2E2E2E2E2E2E2E2E2E2E2E2E2E2E2E2E2E2E2E2E2E2E2E2E2DCE2E2E2E2E2E2E2E2E2E2E2E2E2E2E2E2E2E2E2E2E2E2E2E2E2E2E2E2E2F5E2E2E2E2E2E2E2E2E2E2E2E2E2E2E2E2F5E2E2E2F5F5EFF5E2E2E2E2E2E2E2E2E2E2E2E2E2E2E2E2E2E2E2E2F5E2E2E2E2E2
310
E2E2E2E2E2E2E2E2E2E2E2E2E2E2E2E2E2E2E2E2E2E2E2E2DCE2E2E2E2E2E2E2E2E2E2272727272727272727272727272727E2E2E2E2E2E2E2E2E2E2E2E2E2E2E2E2E2E2E2E2E2E2E2E2E2E2E2E2E2E2E2E2E2E2E2E2E2E2E2E2E2E2E2E2E2E2E2E2E2DCE2E2E2E2E2E2E2E2E2E2E2E2E2E2E2E2E2E2E2E2E2E2E2E2E2E2E2
310
E2E2F5E2E2E2E2E2E2E2E2E2E2E2E2E2E2E2E2E2E2E2E2F5F5EFF5E2E2E2E2E2E2E2E2E2E2E2E2E2E2E2E2E2E2E2E2F5E2E2E2E2E2E2E2E2E2E2E2E2E2E2E2E2E2E2E2E2E2E2E2E2E2E2E2E2E2DCE2E2E2E2E2E2E2E2E2E2E2E2E2E2E2E2E2E2E2E2E2E2E2E2E2E2E2E2E2E2E2E2E2E2E2E2E2E2E2E2E2E2E2E2E2E2E2E2E2
310
E2E2E2E2E2E2E2E2E2E2E2E2E2E2E2E2E2E2E2E2E2E2E2E2E2DCE2E2E2E2E2E2E2E2E2E2E2E2E2E2E2E2E2E2E2E2E2E2E2E2E2E2E2E2E2F5E2E2E2E2E2E2E2E2E2E2E2E2E2E2E2E2E2E2E2E2F5F5EFF5E2E2E2E2E2E2E2E2E2E2E2E2E2E2E2E2E2E2E2E2F5E2E2E2E2E2E2E2E2E2E2E2E2E2E2E2E2E2E2E2E2E2E2E2E2E2E2
310
E2E2E2DCE2E2E2E2E2E2E2E2E2E2E2E2E2E2E2E2E2E2E2E2E2E2E2E2E2E2E2E2E2E2E2E2E2E2E2E2E2E2E2E2E2E2E2E2E2E2E2E2E2E2E2E2E2E2E2E2E2E2E2E2E2E2E2E2E2E2E2E2E2E2E2E2E2E2DCE2E2E2E2E2E2E2E2E2E2E2E2E2E2E2E2E2E2E2E2E2E2E2E2E2E2E2E2E2F5E2E2E2E2E2E2E2E2E2E2E2E2E2E2E2E2E2E2
310
E2E2F5F5EFF5E2E2E2E2E2E2E2E2E2E2E2E2E2E2E2E2E2E2E2E2F5E2E2E2E2E2E2E2E2E2E2E2E2E2E2E2E2E2E2E2E2E2E2E2E2E2E2E2E2E2DCE2E2E2E2E2E2E2E2E2E2E2E2E2E2E2E2E2E2E2E2E2E2E2E2E2E2E2E2E2E2E2E2E2E2E2E2E2E2E2E2E2E2E2E2E2E2E2E2E2E2E2E2E2E2E2E2E2E2E2E2E2E2E2E2E2E2E2E2E2E2
310
E2E2E2E2DCE2E2E2E2E2E2E2E2E2E2E2E2E2E2E2E2E2E2E2E2E2E2E2E2E2E2E2E2E2F5E2E2E2E2E2E2E2E2E2E2E2E2E2E2E2E2E2E2E2E2F5F5EFF5E2E2E2E2E2E2E2E2E2E2E2E2E2E2E2E2E2E2E2E2F5F5F5F5F5F5F5F5F5F5F5F5F5F5F5F5F5F5F5F5F5F5F5F5F5F5F5F5F5F5F5F5F5F5F5F5F5F5F5F5F5F5F5F5F5F5F5F5
310
F5F5F5F5F5F5F5F5F5F5F5F5F5F5F5F5F5F5F5F5F5F5F5F5F5F5F5F5F5F5F5F5F5F5F5F5F5F5F5F5F5F5F5F5F5F5F5F5F5F5F5F5F5F5F5F5F5F5F5F5F5F5F5F5F5F5F5F5F5F5F5F5F5F5F5F5F5F5F5F5F5F5F5F5F5F5F5F5E2E2E2E2E2E2E2E2E2E2E2E2E2E2E2E2E2E2E2E2F5F5EFF5E2E2E2E2E2E2E2E2E2E2E2E2E2E2E2
310
E2E2E2E2E2E2E2E2E2E2E2E2E2E2E2E2E2E2E2E2E2E2E2E2E2E2E2E2E2E2E2E2E2E2E2E2E2E2E2E2E2E2E2E2E2E2E2E2E2E2E2E2E2E2E2E2E2E2E2E2E2E2E2E2E2E2E2E2E2E2E2E2E2E2E2E2E2E2E2E2E2E2E2E2E2E2E2E2E2E2E2E2E2E2E2E2E2E2E2E2E2E2E2E2E2E2E2E2E2E2E2E2E2E2E2E2E2E2E2E2E2E2E2E2E2E2E2
310
E2E2E2E2E2E2E2E2E2E2E2E2E2E2E2E2E2E2E2E2E2E2E2E2E2E2E2E2E2E2E2E2E2E2F5F5EFF5E2E2E2E2E2E2E2E2E2E2E2E2E2E2E2E2E2E2E2E2E2E2E2E2E2E2E2E2E2E2E2E2E2E2E2E2E2E2E2E2E2E2E2E2E2E2E2E2E2E2E2E2E2E2E2E2E2E2E2E2E2E2E2E2E2E2E2E2E2E2E2E2E2E2E2E2E2E2E2E2E2E2E2E2E2E2E2E2E2
310
E2E2E2E2E2E2E2E2E2E2E2E2E2E2E2E2E2E2E2E2E2E2E2E2E2E2E2E2E2E2E2E2E2E2E2E2E2E2E2E2E2E2E2E2E2E2E2E2E2E2E2E2E2E2E2E2E2E2E2E2E2E2E2E2E2E2E2E2E2E2E2E2E2E2E2E2E2E2E2E2E2E2E2E2E2E2E2F5F5EFF5E2E2E2E2E2E2E2E2E2E2E2E2E2E2E2E2E2E2E2E2E2E2E2E2E2E2E2E2E2E2E2E2E2E2E2E2
310
E2E2E2E2E2E2E2E2E2E2E2E2E2E2E2E2E2E2E2E2E2E2E2E2E2E2E2E2E2E2E2E2E2E2E2E2E2E2E2E2E2E2E2E2E2E2E2E2E2E2E2E2E2E2E2E2E2E2E2E2E2E2E2E2E2E2E2E2E2E2E2E2E2E2E2E2E2E2E2E2E2E2E2E2E2E2E2E2E2E2E2E2E2E2E2E2E2E2E2E2E2E2E2E2E2E2E2E2E2E2E2E2E2E2E2E2E2E2E2E2E2E2E2E2E2E2E2
310
E2E2E2E2E2E2E2E2E2E2E2E2E2F5F5EFF5E2E2E2E2E2E2E2E2E2E2E2E2E2E2E2E2E2E2E2E2E2E2E2E2E2E2E2E2E2E2E2E2E2E2E2E2E2E2E2E2E2E2E2E2E2E2E2E2E2E2E2E2E2E2E2E2E2E2E2E2E2E2E2E2E2E2E2E2E2E2E2E2E2E2E2E2E2E2E2E2E2E2E2E2E2E2E2E2E2E2E2E2E2E2E2E2E2E2E2E2E2E2E2E2E2E2E2E2E2E2
310
E2E2E2E2E2E2E2E2E2E2E2E2E2E2E2E2E2E2E2E2E2E2E2E2E2E2E2E2E2E2E2E2E2E2E2E2E2E2E2E2E2E2E2E2E2E2E2E2E2E2E2E2E2E2E2E2E2E2E2E2E2E2E2E2E2E2F5F5EFF5E2E2E2F5E2E2E2E2E2E2E2E2E2E2E2E2E2E2E2E2E2E2E2E2E2E2E2E2E2E2E2E2E2E2E2E2E2E2E2E2E2E2E2E2E2E2E2E2E2E2E2E2E2E2E2E2E2
310
E2E2E2E2E2E2E2E2E2E2E2E2E2E2E2E2E2E2E2E2E2E2E2E2E2E2E2E2E2E2E2E2E2E2E2E2E2E2E2E2E2E2E2E2E2E2E2E2E2E2E2E2E2E2E2E2E2E2E2E2E2E2E2E2E2E2E2E2E2E2E2E2E2E2E2E2E2E2E2E2E2E2E2E2E2E2E2E2E2E2E2E2E2E2E2E2E2E2E2E2E2E2E2E2E2E2E2E2E2E2E2E2E2E2E2F5E2E2E2F5F5EFF5E2E2E2F5
310
E2E2E2E2E2E2E2E2E2E2E2E2E2E2E2E2E2E2E2E2E2E2E2E2E2E2E2E2E2E2E2E2E2E2E2E2E2E2E2E2E2E2E2E2E2E2E2E2E2E2E2E2E2E2E2E2E2E2E2E2E2E2E2E2E2E2E2E2E2E2E2E2E2E2E2E2E2E2E2E2E2E2E2E2E2E2E2E2E2E2E2E2E2E2E2E2E2E2E2E2E2E2E2E2E2E2E2E2E2E2E2E2E2E2E2E2E2E2E2E2E2E2E2E2E2E2E2
310
E2E2E2E2E2E2E2E2E2E2E2E2E2E2E2E2E2E2E2E2E2E2E2E2E2E2E2E2E2E2E2E2E2E2E2E2E2E2E2E2E2F5E2E2E2F5F5EFF5E2E2E2F5E2E2E2E2E2E2E2E2E2E2E2E2E2E2E2E2E2E2E2E2E2E2E2E2E2E2E2E2E2E2E2E2E2E2E2E2E2E2E2E2E2E2E2E2E2E2E2E2E2E2E2E2E2E2E2E2E2E2E2E2E2E2E2E2E2E2E2E2E2E2E2E2E2E2
310
E2E2E2E2E2E2E2E2E2E2E2E2E2E2E2E2E2E2E2E2E2E2E2E2E2E2E2E2E2E2E2E2E2E2E2E2E2E2E2E2E2E2E2E2E2E2E2E2E2E2E2E2E2E2E2E2E2E2E2E2E2E2E2E2E2E2E2E2E2E2E2E2E2E2E2E2E2E2E2E2E2E2E2E2E2E2E2E2E2E2E2E2E2E2F5E2E2E2F5F5EFF5E2E2E2F5E2E2E2E2E2E2E2E2E2E2E2E2E2E2E2E2E2E2E2E2E2
310
E2E2E2E2E2E2E2E2E2E2E2E2E2E2E2E2E2E2E2E2E2E2E2E2E2E2E2E2E2E2E2E2E2E2E2E2E2E2E2E2E2E2E2E2E2E2E2E2E2E2E2E2E2E2E2E2E2E2E2E2E2E2E2E2E2E2E2E2E2E2E2E2E2E2E2E2E2E2E2E2E2E2E2E2E2E2E2E2E2E2E2E2E2E2E2E2E2E2E2E2E2E2E2E2E2E2E2E2E2E2E2E2E2E2E2E2E2E2E2E2E2E2E2E2E2E2E2
310
E2E2E2E2E2E2E2E2E2E2E2E2E2E2E2E2E2E2E2E2F5E2E2E2F5F5EFF5E2E2E2F5E2E2E2E2E2E2E2E2E2E2E2E2E2E2E2E2E2E2E2E2E2E2E2E2E2E2E2E2E2E2E2E2E2E2E2E2E2E2E2E2E2E2E2E2E2E2E2E2E2E2E2E2E2E2E2E2E2E2E2E2E2E2E2E2E2E2E2E2E2E2E2E2E2E2E2E2E2E2E2E2E2E2E2E2E2E2E2E2E2E2E2E2E2E2E2
310
E2E2E2E2E2E2E2E2E2E2E2E2E2E2E2E2E2E2E2E2E2E2E2E2E2E2E2E2E2E2E2E2E2E2E2E2E2E2E2E2E2E2E2E2E2E2E2E2E2E2E2E2E2E2E2E2E2E2E2E2E2E2E2E2E2E2E2E2E2E2E2E2E2F5E2E2E2F5F5EFF5E2E2E2F5E2E2E2E2E2E2E2E2E2E2E2E2E2E2E2E2E2E2E2E2E2E2E2E2E2E2E2E2E2E2E2E2E2E2E2E2E2E2E2E2E2E2
310
E2E2E2E2E2E2E2E2E2E2E2E2E2E2E2E2E2E2E2E2E2E2E2E2E2E2E2E2E2E2E2E2E2E2E2E2E2E2E2E2E2E2E2E2E2E2E2E2E2E2E2E2E2E2E2E2E2E2E2E2E2E2E2E2E2E2E2E2E2E2E2E2E2E2E2E2E2E2E2E2E2E2E2E2E2E2E2E2E2E2E2E2E2E2E2E2E2E2E2E2E2E2E2E2E2E2E2E2E2E2E2E2E2E2E2E2E2E2E2E2E2E2E2E2E2E2F5
310
E2E2E2F5F5EFF5E2E2E2F5E2E2E2E2E2E2E2E2E2E2E2E2E2E2E2E2E2E2E2E2E2E2E2E2E2E2E2E2E2E2E2E2E2E2E2E2E2E2E2E2E2E2E2E2E2E2E2E2E2E2E2E2E2E2E2E2E2E2E2E2E2E2E2E2E2E2E2E2E2E2E2E2E2E2E2E2E2E2E2E2E2E2E2E2E2E2E2E2E2E2E2E2E2E2E2E2E2E2E2E2E2E2E2E2E2E2E2E2E2E2E2E2E2E2E2E2
310
E2E2E2E2E2E2E2E2E2E2E2E2E2E2E2E2E2E2E2E2E2E2E2E2E2E2E2E2E2E2E2E2E2E2E2E2E2E2E2E2E2E2E2E2E2E2E2E2E2E2E2E2F5E2E2E2F5F5EFF5E2E2E2F5E2E2E2E2E2E2E2E2E2E2E2E2E2E2E2E2E2E2E2E2E2E2E2E2E2E2E2E2E2E2E2E2E2E2E2E2E2E2E2E2E2E2E2E2E2E2E2E2E2E2E2E2E2E2E2E2E2E2E2E2E2E2E2
310
E2E2E2E2E2E2E2E2E2E2E2E2E2E2E2E2E2E2E2E2E2E2E2E2E2E2E2E2E2E2E2E2E2E2E2E2E2E2E2E2E2E2E2E2E2E2E2E2E2E2E2E2E2E2E2E2E2E2E2E2E2E2E2E2E2E2E2E2E2E2E2E2E2E2E2E2E2E2E2E2E2E2E2E2E2E2E2E2E2E2E2E2E2E2E2E2E2E2E2E2E2E2E2E2E2F5E2E2E2F5F5EFF5E2E2E2F5F5F5F5F5F5F5F5E2E2E2
310
E2E2E2E2E2E2F5F5F5F5F5F5F5F5F5F5F5F5F5F5F5E2E2E2E2E2E2E2E2E2F5F5F5F5F5F5F5F5F5F5F5F5F5F5F5F5E2E2E2E2E2E2E2E2F5F5F5F5F5F5F5F5F5F5F5F5F5F5F5F5E2E2E2E2E2E2E2E2F5F5F5F5F5F5F5F5F5F5F5F5F5F5F5F5E2E2E2E2E2E2E2E2F5F5F5F5F5F5F5F5F5F5F5F5F5F5F5F5E2E2E2E2E2E2E2E2E2
310
F5F5F5F5F5F5F5F5F5F5F5F5F5F5F5E2E2E2E2E2E2E2E2E2F5F5F5F5F5F5F5F5E2E2E2F5F5EFF5E2E2E2E2E2E2E2E2E2E2E2E2E2E2E2E2E2E2E2E2E2E2E2E2E2E2E2E2E2E2E2E2E2E2E2E2E2E2E2E2E2E2E2E2E2E2E2E2E2E2E2E2E2E2E2E2E2E2E2E2E2E2E2E2E2E2E2E2E2E2E2E2E2E2E2E2E2E2E2E2E2E2E2E2E2E2E2E2
310
E2E2E2E2E2E2E2E2E2E2E2E2E2E2E2E2E2E2E2E2E2E2E2E2E2E2E2E2E2E2E2E2E2E2E2E2E2E2E2E2E2E2E2E2E2E2E2E2E2E2E2E2E2E2E2E2E2E2E2E2E2E2E2E2E2E2E2E2E2E2E2E2E2E2E2E2E2E2E2E2E2E2E2E2E2E2E2E2F5F5EFF5E2E2E2E2E2E2E2E2E2E2E2E2E2E2E2E2E2E2E2E2E2E2E2E2E2E2E2E2E2E2E2E2E2E2E2
310
E2E2E2E2E2E2E2E2E2E2E2E2E2E2E2E2E2E2E2E2E2E2E2E2E2E2E2E2E2E2E2E2E2E2E2E2E2E2E2E2E2E2E2E2E2E2E2E2E2E2E2E2E2E2E2E2E2E2E2E2E2E2E2E2E2E2E2E2E2E2E2E2E2E2E2E2E2E2E2E2E2E2E2E2E2E2E2E2E2E2E2E2E2E2E2E2E2E2E2E2E2E2E2E2E2E2E2E2E2E2E2E2E2E2E2E2E2E2E2E2E2E2E2E2E2E2E2
310
E2E2E2E2E2E2E2E2E2E2E2E2E2E2F5EFEFF5E2E2E2E2E2E2E2E2E2E2E2E2E2E2E2E2E2E2E2E2E2E2E2E2E2E2E2E2E2E2E2E2E2E2E2E2E2E2E2E2E2E2E2E2E2E2E2E2E2E2E2E2E2E2E2E2E2E2E2E2E2E2E2E2E2E2E2E2E2E2E2E2E2E2E2E2E2E2E2E2E2E2E2E2E2E2E2E2E2E2E2E2E2E2E2E2E2E2E2E2E2E2E2E2E2E2E2E2E2
310
E2E2E2E2E2E2E2E2E2E2E2E2E2E2E2E2E2E2E2E2E2E2E2E2E2E2E2E2E2E2E2E2E2E2E2E2E2E2E2E2E2E2E2E2E2E2E2E2E2E2E2E2E2E2E2E2E2E2E2E2E2E2E2E2E2E2E2F5EFEFF5F5F5F5F5F5F5F5F5F5F5F5F5F5F5F5F5F5F5F5F5F5F5F5F5F5F5F5F5F5F5F5F5F5F5F5F5F5F5F5F5F5F5F5F5F5F5F5F5F5F5F5F5F5F5F5F5
310
F5F5F5F5F5F5F5F5F5F5F5F5F5F5F5F5F5F5F5F5F5F5F5F5F5F5F5F5F5F5F5F5F5F5F5F5F5F5F5F5F5F5F5F5F5F5F5F5F5F5F5F5F5F5F5F5F5F5F5F5F5F5F5F5F5F5F5F5F5F5F5F5F5F5F5F5F5F5F5F5F5F5F5F5F5F5F5F5F5F5F5F5F5F5F5F5F5F5F5F5F5F5F5F5F5F5F5F5F5F5F5F5F5F5F5F5F5F5F5F5F5EFEF
  0
XRECORD
  5
333
102
{ACAD_REACTORS
330
332
102
}
330
332
100
AcDbXrecord
280
     1
102
SHADEPLOT
 70
     1
102
SHADEPLOTRESLEVEL
 70
     2
102
SHADEPLOTCUSTOMDPI
 70
   300
  0
XRECORD
  5
33C
102
{ACAD_REACTORS
330
33B
102
}
330
33B
100
AcDbXrecord
280
     1
102
MATERIAL
148
0.0
149
0.0
149
0.0
 93
        0
 94
       63
282
     0
 72
     1
 77
     1
171
     1
175
     1
179
     1
273
     0
  0
XRECORD
  5
33A
102
{ACAD_REACTORS
330
339
102
}
330
339
100
AcDbXrecord
280
     1
102
MATERIAL
148
0.0
149
0.0
149
0.0
 93
        0
 94
       63
282
     0
 72
     1
 77
     1
171
     1
175
     1
179
     1
273
     0
  0
XRECORD
  5
32D
102
{ACAD_REACTORS
330
32C
102
}
330
32C
100
AcDbXrecord
280
     1
102
MATERIAL
148
0.0
149
0.0
149
0.0
 93
        0
 94
       63
282
     0
 72
     1
 77
     1
171
     1
175
     1
179
     1
273
     0
  0
CELLSTYLEMAP
  5
329
102
{ACAD_REACTORS
330
2CD
102
}
330
2CD
100
AcDbCellStyleMap
 90
        3
300
CELLSTYLE
  1
TABLEFORMAT_BEGIN
 90
        5
170
     1
 91
        0
 92
    32768
 62
   257
 93
        1
300
CONTENTFORMAT
  1
CONTENTFORMAT_BEGIN
 90
        0
 91
        0
 92
        4
 93
        0
300

 40
0.0
140
1.0
 94
        5
 62
     0
340
2B4
144
0.25
309
CONTENTFORMAT_END
171
     0
 94
        6
 95
        1
302
GRIDFORMAT
  1
GRIDFORMAT_BEGIN
 90
        0
 91
        1
 62
     0
 92
       -2
340
0
 93
        0
 40
0.045
309
GRIDFORMAT_END
 95
        2
302
GRIDFORMAT
  1
GRIDFORMAT_BEGIN
 90
        0
 91
        1
 62
     0
 92
       -2
340
0
 93
        0
 40
0.045
309
GRIDFORMAT_END
 95
        4
302
GRIDFORMAT
  1
GRIDFORMAT_BEGIN
 90
        0
 91
        1
 62
     0
 92
       -2
340
0
 93
        0
 40
0.045
309
GRIDFORMAT_END
 95
        8
302
GRIDFORMAT
  1
GRIDFORMAT_BEGIN
 90
        0
 91
        1
 62
     0
 92
       -2
340
0
 93
        0
 40
0.045
309
GRIDFORMAT_END
 95
       16
302
GRIDFORMAT
  1
GRIDFORMAT_BEGIN
 90
        0
 91
        1
 62
     0
 92
       -2
340
0
 93
        0
 40
0.045
309
GRIDFORMAT_END
 95
       32
302
GRIDFORMAT
  1
GRIDFORMAT_BEGIN
 90
        0
 91
        1
 62
     0
 92
       -2
340
0
 93
        0
 40
0.045
309
GRIDFORMAT_END
309
TABLEFORMAT_END
  1
CELLSTYLE_BEGIN
 90
        1
 91
        1
300
_TITLE
309
CELLSTYLE_END
300
CELLSTYLE
  1
TABLEFORMAT_BEGIN
 90
        5
170
     1
 91
        0
 92
        0
 62
   257
 93
        1
300
CONTENTFORMAT
  1
CONTENTFORMAT_BEGIN
 90
        0
 91
        0
 92
        4
 93
        0
300

 40
0.0
140
1.0
 94
        5
 62
     0
340
2B4
144
0.18
309
CONTENTFORMAT_END
171
     0
 94
        6
 95
        1
302
GRIDFORMAT
  1
GRIDFORMAT_BEGIN
 90
        0
 91
        1
 62
     0
 92
       -2
340
0
 93
        0
 40
0.045
309
GRIDFORMAT_END
 95
        2
302
GRIDFORMAT
  1
GRIDFORMAT_BEGIN
 90
        0
 91
        1
 62
     0
 92
       -2
340
0
 93
        0
 40
0.045
309
GRIDFORMAT_END
 95
        4
302
GRIDFORMAT
  1
GRIDFORMAT_BEGIN
 90
        0
 91
        1
 62
     0
 92
       -2
340
0
 93
        0
 40
0.045
309
GRIDFORMAT_END
 95
        8
302
GRIDFORMAT
  1
GRIDFORMAT_BEGIN
 90
        0
 91
        1
 62
     0
 92
       -2
340
0
 93
        0
 40
0.045
309
GRIDFORMAT_END
 95
       16
302
GRIDFORMAT
  1
GRIDFORMAT_BEGIN
 90
        0
 91
        1
 62
     0
 92
       -2
340
0
 93
        0
 40
0.045
309
GRIDFORMAT_END
 95
       32
302
GRIDFORMAT
  1
GRIDFORMAT_BEGIN
 90
        0
 91
        1
 62
     0
 92
       -2
340
0
 93
        0
 40
0.045
309
GRIDFORMAT_END
309
TABLEFORMAT_END
  1
CELLSTYLE_BEGIN
 90
        2
 91
        1
300
_HEADER
309
CELLSTYLE_END
300
CELLSTYLE
  1
TABLEFORMAT_BEGIN
 90
        5
170
     1
 91
        0
 92
        0
 62
   257
 93
        1
300
CONTENTFORMAT
  1
CONTENTFORMAT_BEGIN
 90
        0
 91
        0
 92
        4
 93
        0
300

 40
0.0
140
1.0
 94
        2
 62
     0
340
2B4
144
0.18
309
CONTENTFORMAT_END
171
     0
 94
        6
 95
        1
302
GRIDFORMAT
  1
GRIDFORMAT_BEGIN
 90
        0
 91
        1
 62
     0
 92
       -2
340
0
 93
        0
 40
0.045
309
GRIDFORMAT_END
 95
        2
302
GRIDFORMAT
  1
GRIDFORMAT_BEGIN
 90
        0
 91
        1
 62
     0
 92
       -2
340
0
 93
        0
 40
0.045
309
GRIDFORMAT_END
 95
        4
302
GRIDFORMAT
  1
GRIDFORMAT_BEGIN
 90
        0
 91
        1
 62
     0
 92
       -2
340
0
 93
        0
 40
0.045
309
GRIDFORMAT_END
 95
        8
302
GRIDFORMAT
  1
GRIDFORMAT_BEGIN
 90
        0
 91
        1
 62
     0
 92
       -2
340
0
 93
        0
 40
0.045
309
GRIDFORMAT_END
 95
       16
302
GRIDFORMAT
  1
GRIDFORMAT_BEGIN
 90
        0
 91
        1
 62
     0
 92
       -2
340
0
 93
        0
 40
0.045
309
GRIDFORMAT_END
 95
       32
302
GRIDFORMAT
  1
GRIDFORMAT_BEGIN
 90
        0
 91
        1
 62
     0
 92
       -2
340
0
 93
        0
 40
0.045
309
GRIDFORMAT_END
309
TABLEFORMAT_END
  1
CELLSTYLE_BEGIN
 90
        3
 91
        2
300
_DATA
309
CELLSTYLE_END
  0
XRECORD
  5
33D
102
{ACAD_REACTORS
330
2CD
102
}
330
2CD
100
AcDbXrecord
280
     1
102
ACAD_ROUNDTRIP_PRE2007_TABLESTYLE
 90
        4
 91
        0
  1

 92
        4
 93
        0
  2

 94
        4
 95
        0
  3

  0
ENDSEC
  0
EOF
